ISO-10303-21;
HEADER;
FILE_DESCRIPTION(('STEP AP214'),'1');
FILE_NAME(' ','  ',('TraceParts'),('TraceParts S.A.'),'XStep 1.0',' ',' ');
FILE_SCHEMA(('automotive_design'));
ENDSEC;
DATA;
#1=MECHANICAL_DESIGN_GEOMETRIC_PRESENTATION_REPRESENTATION(' ',(#10,#11,#12,#13,#14,#15,#16,#17,#18,#19,#20,#21,#22,#23,#24,#25,#26,#27,#28,#29,#30,#31,#32,#33,#34,#35,#36,#37,#38,#39,#40,#41,#42,#43,#44,#45,#46,#47,#48,#49,#50,#51,#52,#53),#6);
#2=PRODUCT_DEFINITION_CONTEXT('',#54,'design');
#3=APPLICATION_PROTOCOL_DEFINITION('INTERNATIONAL STANDARD','automotive_design',1994,#54);
#4=PRODUCT_CATEGORY_RELATIONSHIP('NONE','NONE',#55,#56);
#5=SHAPE_DEFINITION_REPRESENTATION(#57,#58);
#6= (GEOMETRIC_REPRESENTATION_CONTEXT(3)GLOBAL_UNCERTAINTY_ASSIGNED_CONTEXT((#61))GLOBAL_UNIT_ASSIGNED_CONTEXT((#63,#64,#65))REPRESENTATION_CONTEXT('NONE','WORKSPACE'));
#10=STYLED_ITEM('',(#67),#68);
#11=STYLED_ITEM('',(#69),#70);
#12=STYLED_ITEM('',(#71),#72);
#13=STYLED_ITEM('',(#73),#74);
#14=STYLED_ITEM('',(#75),#76);
#15=STYLED_ITEM('',(#77),#78);
#16=STYLED_ITEM('',(#79),#80);
#17=STYLED_ITEM('',(#81),#82);
#18=STYLED_ITEM('',(#83),#84);
#19=STYLED_ITEM('',(#85),#86);
#20=STYLED_ITEM('',(#87),#88);
#21=STYLED_ITEM('',(#89),#90);
#22=STYLED_ITEM('',(#91),#92);
#23=STYLED_ITEM('',(#93),#94);
#24=STYLED_ITEM('',(#95),#96);
#25=STYLED_ITEM('',(#97),#98);
#26=STYLED_ITEM('',(#99),#100);
#27=STYLED_ITEM('',(#101),#102);
#28=STYLED_ITEM('',(#103),#104);
#29=STYLED_ITEM('',(#105),#106);
#30=STYLED_ITEM('',(#107),#108);
#31=STYLED_ITEM('',(#109),#110);
#32=STYLED_ITEM('',(#111),#112);
#33=STYLED_ITEM('',(#113),#114);
#34=STYLED_ITEM('',(#115),#116);
#35=STYLED_ITEM('',(#117),#118);
#36=STYLED_ITEM('',(#119),#120);
#37=STYLED_ITEM('',(#121),#122);
#38=STYLED_ITEM('',(#123),#124);
#39=STYLED_ITEM('',(#125),#126);
#40=STYLED_ITEM('',(#127),#128);
#41=STYLED_ITEM('',(#129),#130);
#42=STYLED_ITEM('',(#131),#132);
#43=STYLED_ITEM('',(#133),#134);
#44=STYLED_ITEM('',(#135),#136);
#45=STYLED_ITEM('',(#137),#138);
#46=STYLED_ITEM('',(#139),#140);
#47=STYLED_ITEM('',(#141),#142);
#48=STYLED_ITEM('',(#143),#144);
#49=STYLED_ITEM('',(#145),#146);
#50=STYLED_ITEM('',(#147),#148);
#51=STYLED_ITEM('',(#149),#150);
#52=STYLED_ITEM('',(#151),#152);
#53=STYLED_ITEM('',(#153),#154);
#54=APPLICATION_CONTEXT(' ');
#55=PRODUCT_CATEGORY('part','NONE');
#56=PRODUCT_RELATED_PRODUCT_CATEGORY('detail',' ',(#155));
#57=PRODUCT_DEFINITION_SHAPE('NONE','NONE',#156);
#58=ADVANCED_BREP_SHAPE_REPRESENTATION('1',(#108,#157),#6);
#61=UNCERTAINTY_MEASURE_WITH_UNIT(LENGTH_MEASURE(1.0E-006),#63,'','');
#63= (CONVERSION_BASED_UNIT('MILLIMETRE',#160)LENGTH_UNIT()NAMED_UNIT(#163));
#64= (NAMED_UNIT(#165)PLANE_ANGLE_UNIT()SI_UNIT($,.RADIAN.));
#65= (NAMED_UNIT(#165)SOLID_ANGLE_UNIT()SI_UNIT($,.STERADIAN.));
#67=PRESENTATION_STYLE_ASSIGNMENT((#171));
#68=VERTEX_POINT('',#172);
#69=PRESENTATION_STYLE_ASSIGNMENT((#173));
#70=ADVANCED_FACE('',(#174),#175,.T.);
#71=PRESENTATION_STYLE_ASSIGNMENT((#176));
#72=VERTEX_POINT('',#177);
#73=PRESENTATION_STYLE_ASSIGNMENT((#178));
#74=EDGE_CURVE('',#150,#118,#179,.T.);
#75=PRESENTATION_STYLE_ASSIGNMENT((#180));
#76=EDGE_CURVE('',#82,#118,#181,.T.);
#77=PRESENTATION_STYLE_ASSIGNMENT((#182));
#78=EDGE_CURVE('',#122,#68,#183,.T.);
#79=PRESENTATION_STYLE_ASSIGNMENT((#184));
#80=EDGE_CURVE('',#100,#142,#185,.T.);
#81=PRESENTATION_STYLE_ASSIGNMENT((#186));
#82=VERTEX_POINT('',#187);
#83=PRESENTATION_STYLE_ASSIGNMENT((#188));
#84=EDGE_CURVE('',#144,#128,#189,.T.);
#85=PRESENTATION_STYLE_ASSIGNMENT((#190));
#86=ADVANCED_FACE('',(#191),#192,.T.);
#87=PRESENTATION_STYLE_ASSIGNMENT((#193));
#88=ADVANCED_FACE('',(#194),#195,.T.);
#89=PRESENTATION_STYLE_ASSIGNMENT((#196));
#90=ADVANCED_FACE('',(#197),#198,.T.);
#91=PRESENTATION_STYLE_ASSIGNMENT((#199));
#92=EDGE_CURVE('',#96,#120,#200,.T.);
#93=PRESENTATION_STYLE_ASSIGNMENT((#201));
#94=ADVANCED_FACE('',(#202),#203,.T.);
#95=PRESENTATION_STYLE_ASSIGNMENT((#204));
#96=VERTEX_POINT('',#205);
#97=PRESENTATION_STYLE_ASSIGNMENT((#206));
#98=ADVANCED_FACE('',(#207,#208),#209,.T.);
#99=PRESENTATION_STYLE_ASSIGNMENT((#210));
#100=VERTEX_POINT('',#211);
#101=PRESENTATION_STYLE_ASSIGNMENT((#212));
#102=EDGE_CURVE('',#72,#142,#213,.T.);
#103=PRESENTATION_STYLE_ASSIGNMENT((#214));
#104=ADVANCED_FACE('',(#215),#216,.T.);
#105=PRESENTATION_STYLE_ASSIGNMENT((#217));
#106=EDGE_CURVE('',#82,#100,#218,.T.);
#107=PRESENTATION_STYLE_ASSIGNMENT((#219));
#108=MANIFOLD_SOLID_BREP('1',#220);
#109=PRESENTATION_STYLE_ASSIGNMENT((#221));
#110=EDGE_CURVE('',#100,#150,#222,.T.);
#111=PRESENTATION_STYLE_ASSIGNMENT((#223));
#112=ADVANCED_FACE('',(#224),#225,.T.);
#113=PRESENTATION_STYLE_ASSIGNMENT((#226));
#114=ADVANCED_FACE('',(#227),#228,.T.);
#115=PRESENTATION_STYLE_ASSIGNMENT((#229));
#116=EDGE_CURVE('',#72,#150,#230,.T.);
#117=PRESENTATION_STYLE_ASSIGNMENT((#231));
#118=VERTEX_POINT('',#232);
#119=PRESENTATION_STYLE_ASSIGNMENT((#233));
#120=VERTEX_POINT('',#234);
#121=PRESENTATION_STYLE_ASSIGNMENT((#235));
#122=VERTEX_POINT('',#236);
#123=PRESENTATION_STYLE_ASSIGNMENT((#237));
#124=EDGE_CURVE('',#118,#82,#238,.T.);
#125=PRESENTATION_STYLE_ASSIGNMENT((#239));
#126=EDGE_CURVE('',#120,#96,#240,.T.);
#127=PRESENTATION_STYLE_ASSIGNMENT((#241));
#128=VERTEX_POINT('',#242);
#129=PRESENTATION_STYLE_ASSIGNMENT((#243));
#130=ADVANCED_FACE('',(#244),#245,.T.);
#131=PRESENTATION_STYLE_ASSIGNMENT((#246));
#132=EDGE_CURVE('',#120,#128,#247,.T.);
#133=PRESENTATION_STYLE_ASSIGNMENT((#248));
#134=EDGE_CURVE('',#150,#100,#249,.T.);
#135=PRESENTATION_STYLE_ASSIGNMENT((#250));
#136=EDGE_CURVE('',#144,#96,#251,.T.);
#137=PRESENTATION_STYLE_ASSIGNMENT((#252));
#138=EDGE_CURVE('',#142,#72,#253,.T.);
#139=PRESENTATION_STYLE_ASSIGNMENT((#254));
#140=ADVANCED_FACE('',(#255),#256,.T.);
#141=PRESENTATION_STYLE_ASSIGNMENT((#257));
#142=VERTEX_POINT('',#258);
#143=PRESENTATION_STYLE_ASSIGNMENT((#259));
#144=VERTEX_POINT('',#260);
#145=PRESENTATION_STYLE_ASSIGNMENT((#261));
#146=EDGE_CURVE('',#68,#122,#262,.T.);
#147=PRESENTATION_STYLE_ASSIGNMENT((#263));
#148=EDGE_CURVE('',#128,#144,#264,.T.);
#149=PRESENTATION_STYLE_ASSIGNMENT((#265));
#150=VERTEX_POINT('',#266);
#151=PRESENTATION_STYLE_ASSIGNMENT((#267));
#152=EDGE_CURVE('',#128,#68,#268,.T.);
#153=PRESENTATION_STYLE_ASSIGNMENT((#269));
#154=EDGE_CURVE('',#122,#144,#270,.T.);
#155=PRODUCT('1','1','PART-1-DESC',(#271));
#156=PRODUCT_DEFINITION('NONE','NONE',#272,#2);
#157=AXIS2_PLACEMENT_3D('',#273,#274,#275);
#160=LENGTH_MEASURE_WITH_UNIT(LENGTH_MEASURE(1.0),#276);
#163=DIMENSIONAL_EXPONENTS(1.0,0.0,0.0,0.0,0.0,0.0,0.0);
#165=DIMENSIONAL_EXPONENTS(0.0,0.0,0.0,0.0,0.0,0.0,0.0);
#171=POINT_STYLE(' ',#277,POSITIVE_LENGTH_MEASURE(1.0E-006),#278);
#172=CARTESIAN_POINT('',(-5.55680637746118E-013,1.67846096908269,-6.00000000000003));
#173=SURFACE_STYLE_USAGE(.BOTH.,#279);
#174=FACE_OUTER_BOUND('',#280,.T.);
#175=PLANE('',#281);
#176=POINT_STYLE(' ',#282,POSITIVE_LENGTH_MEASURE(1.0E-006),#283);
#177=CARTESIAN_POINT('',(-6.39423470552996E-013,1.92820323027553,6.99999999999997));
#178=CURVE_STYLE('',#284,POSITIVE_LENGTH_MEASURE(1.0E-006),#285);
#179=LINE('',#286,#287);
#180=CURVE_STYLE('',#288,POSITIVE_LENGTH_MEASURE(1.0E-006),#289);
#181=CIRCLE('',#290,3.0);
#182=CURVE_STYLE('',#291,POSITIVE_LENGTH_MEASURE(1.0E-006),#292);
#183=CIRCLE('',#293,1.67846096908266);
#184=CURVE_STYLE('',#294,POSITIVE_LENGTH_MEASURE(1.0E-006),#295);
#185=LINE('',#296,#297);
#186=POINT_STYLE(' ',#298,POSITIVE_LENGTH_MEASURE(1.0E-006),#299);
#187=CARTESIAN_POINT('',(6.95221518654363E-015,-2.99999999999997,-2.8421709430404E-014));
#188=CURVE_STYLE('',#300,POSITIVE_LENGTH_MEASURE(1.0E-006),#301);
#189=CIRCLE('',#302,2.0);
#190=SURFACE_STYLE_USAGE(.BOTH.,#303);
#191=FACE_OUTER_BOUND('',#304,.T.);
#192=CONICAL_SURFACE('',#305,1.83923048454133,0.261799387799149);
#193=SURFACE_STYLE_USAGE(.BOTH.,#306);
#194=FACE_OUTER_BOUND('',#307,.T.);
#195=CYLINDRICAL_SURFACE('',#308,2.0);
#196=SURFACE_STYLE_USAGE(.BOTH.,#309);
#197=FACE_OUTER_BOUND('',#310,.T.);
#198=PLANE('',#311);
#199=CURVE_STYLE('',#312,POSITIVE_LENGTH_MEASURE(1.0E-006),#313);
#200=CIRCLE('',#314,2.0);
#201=SURFACE_STYLE_USAGE(.BOTH.,#315);
#202=FACE_OUTER_BOUND('',#316,.T.);
#203=CYLINDRICAL_SURFACE('',#317,2.0);
#204=POINT_STYLE(' ',#318,POSITIVE_LENGTH_MEASURE(1.0E-006),#319);
#205=CARTESIAN_POINT('',(7.13590613961699E-015,-1.99999999999997,-2.8421709430404E-014));
#206=SURFACE_STYLE_USAGE(.BOTH.,#320);
#207=FACE_OUTER_BOUND('',#321,.T.);
#208=FACE_BOUND('',#322,.T.);
#209=PLANE('',#323);
#210=POINT_STYLE(' ',#324,POSITIVE_LENGTH_MEASURE(1.0E-006),#325);
#211=CARTESIAN_POINT('',(7.13590613961699E-015,-2.99999999999997,2.99999999999997));
#212=CURVE_STYLE('',#326,POSITIVE_LENGTH_MEASURE(1.0E-006),#327);
#213=CIRCLE('',#328,1.9282032302755);
#214=SURFACE_STYLE_USAGE(.BOTH.,#329);
#215=FACE_OUTER_BOUND('',#330,.T.);
#216=CYLINDRICAL_SURFACE('',#331,3.0);
#217=CURVE_STYLE('',#332,POSITIVE_LENGTH_MEASURE(1.0E-006),#333);
#218=LINE('',#334,#335);
#219=SURFACE_STYLE_USAGE(.BOTH.,#336);
#220=CLOSED_SHELL('',(#140,#130,#94,#86,#70,#112,#88,#98,#104,#114,#90));
#221=CURVE_STYLE('',#337,POSITIVE_LENGTH_MEASURE(1.0E-006),#338);
#222=CIRCLE('',#339,3.0);
#223=SURFACE_STYLE_USAGE(.BOTH.,#340);
#224=FACE_OUTER_BOUND('',#341,.T.);
#225=CONICAL_SURFACE('',#342,1.83923048454133,0.261799387799149);
#226=SURFACE_STYLE_USAGE(.BOTH.,#343);
#227=FACE_OUTER_BOUND('',#344,.T.);
#228=CONICAL_SURFACE('',#345,2.46410161513775,0.261799387799152);
#229=CURVE_STYLE('',#346,POSITIVE_LENGTH_MEASURE(1.0E-006),#347);
#230=LINE('',#348,#349);
#231=POINT_STYLE(' ',#350,POSITIVE_LENGTH_MEASURE(1.0E-006),#351);
#232=CARTESIAN_POINT('',(-9.98815178072963E-013,3.00000000000003,-2.8421709430404E-014));
#233=POINT_STYLE(' ',#352,POSITIVE_LENGTH_MEASURE(1.0E-006),#353);
#234=CARTESIAN_POINT('',(-6.63498150002103E-013,2.00000000000003,-2.8421709430404E-014));
#235=POINT_STYLE(' ',#354,POSITIVE_LENGTH_MEASURE(1.0E-006),#355);
#236=CARTESIAN_POINT('',(6.82758804450977E-015,-1.67846096908264,-6.00000000000003));
#237=CURVE_STYLE('',#356,POSITIVE_LENGTH_MEASURE(1.0E-006),#357);
#238=CIRCLE('',#358,3.0);
#239=CURVE_STYLE('',#359,POSITIVE_LENGTH_MEASURE(1.0E-006),#360);
#240=CIRCLE('',#361,2.0);
#241=POINT_STYLE(' ',#362,POSITIVE_LENGTH_MEASURE(1.0E-006),#363);
#242=CARTESIAN_POINT('',(-6.63498150002103E-013,2.00000000000003,-4.80000000000007));
#243=SURFACE_STYLE_USAGE(.BOTH.,#364);
#244=FACE_OUTER_BOUND('',#365,.T.);
#245=CYLINDRICAL_SURFACE('',#366,3.0);
#246=CURVE_STYLE('',#367,POSITIVE_LENGTH_MEASURE(1.0E-006),#368);
#247=LINE('',#369,#370);
#248=CURVE_STYLE('',#371,POSITIVE_LENGTH_MEASURE(1.0E-006),#372);
#249=CIRCLE('',#373,3.0);
#250=CURVE_STYLE('',#374,POSITIVE_LENGTH_MEASURE(1.0E-006),#375);
#251=LINE('',#376,#377);
#252=CURVE_STYLE('',#378,POSITIVE_LENGTH_MEASURE(1.0E-006),#379);
#253=CIRCLE('',#380,1.9282032302755);
#254=SURFACE_STYLE_USAGE(.BOTH.,#381);
#255=FACE_OUTER_BOUND('',#382,.T.);
#256=CONICAL_SURFACE('',#383,2.46410161513775,0.261799387799152);
#257=POINT_STYLE(' ',#384,POSITIVE_LENGTH_MEASURE(1.0E-006),#385);
#258=CARTESIAN_POINT('',(7.5777067805131E-015,-1.92820323027547,6.99999999999997));
#259=POINT_STYLE(' ',#386,POSITIVE_LENGTH_MEASURE(1.0E-006),#387);
#260=CARTESIAN_POINT('',(6.84200061469962E-015,-1.99999999999997,-4.80000000000007));
#261=CURVE_STYLE('',#388,POSITIVE_LENGTH_MEASURE(1.0E-006),#389);
#262=CIRCLE('',#390,1.67846096908266);
#263=CURVE_STYLE('',#391,POSITIVE_LENGTH_MEASURE(1.0E-006),#392);
#264=CIRCLE('',#393,2.0);
#265=POINT_STYLE(' ',#394,POSITIVE_LENGTH_MEASURE(1.0E-006),#395);
#266=CARTESIAN_POINT('',(-9.98815178072963E-013,3.00000000000003,2.99999999999997));
#267=CURVE_STYLE('',#396,POSITIVE_LENGTH_MEASURE(1.0E-006),#397);
#268=LINE('',#398,#399);
#269=CURVE_STYLE('',#400,POSITIVE_LENGTH_MEASURE(1.0E-006),#401);
#270=LINE('',#402,#403);
#271=PRODUCT_CONTEXT('',#54,'mechanical');
#272=PRODUCT_DEFINITION_FORMATION_WITH_SPECIFIED_SOURCE(' ','NONE',#155,.NOT_KNOWN.);
#273=CARTESIAN_POINT('',(0.0,0.0,0.0));
#274=DIRECTION('',(0.0,0.0,1.0));
#275=DIRECTION('',(1.0,0.0,0.0));
#276= (NAMED_UNIT(#163)LENGTH_UNIT()SI_UNIT(.MILLI.,.METRE.));
#277=PRE_DEFINED_MARKER('');
#278=COLOUR_RGB('',0.509803950786591,0.509803950786591,0.588235318660736);
#279=SURFACE_SIDE_STYLE('',(#405));
#280=EDGE_LOOP('',(#406,#407));
#281=AXIS2_PLACEMENT_3D('',#408,#409,#410);
#282=PRE_DEFINED_MARKER('');
#283=COLOUR_RGB('',0.509803950786591,0.509803950786591,0.588235318660736);
#284=DRAUGHTING_PRE_DEFINED_CURVE_FONT('continuous');
#285=COLOUR_RGB('',0.509803950786591,0.509803950786591,0.588235318660736);
#286=CARTESIAN_POINT('',(-9.98815178072963E-013,3.00000000000003,1.49999999999997));
#287=VECTOR('',#411,1.0);
#288=DRAUGHTING_PRE_DEFINED_CURVE_FONT('continuous');
#289=COLOUR_RGB('',0.509803950786591,0.509803950786591,0.588235318660736);
#290=AXIS2_PLACEMENT_3D('',#412,#413,#414);
#291=DRAUGHTING_PRE_DEFINED_CURVE_FONT('continuous');
#292=COLOUR_RGB('',0.509803950786591,0.509803950786591,0.588235318660736);
#293=AXIS2_PLACEMENT_3D('',#415,#416,#417);
#294=DRAUGHTING_PRE_DEFINED_CURVE_FONT('continuous');
#295=COLOUR_RGB('',0.509803950786591,0.509803950786591,0.588235318660736);
#296=CARTESIAN_POINT('',(8.33391136592214E-013,-2.46410161513772,4.99999999999997));
#297=VECTOR('',#418,1.0);
#298=PRE_DEFINED_MARKER('');
#299=COLOUR_RGB('',0.509803950786591,0.509803950786591,0.588235318660736);
#300=DRAUGHTING_PRE_DEFINED_CURVE_FONT('continuous');
#301=COLOUR_RGB('',0.509803950786591,0.509803950786591,0.588235318660736);
#302=AXIS2_PLACEMENT_3D('',#419,#420,#421);
#303=SURFACE_SIDE_STYLE('',(#422));
#304=EDGE_LOOP('',(#423,#424,#425,#426));
#305=AXIS2_PLACEMENT_3D('',#427,#428,#429);
#306=SURFACE_SIDE_STYLE('',(#430));
#307=EDGE_LOOP('',(#431,#432,#433,#434));
#308=AXIS2_PLACEMENT_3D('',#435,#436,#437);
#309=SURFACE_SIDE_STYLE('',(#438));
#310=EDGE_LOOP('',(#439,#440));
#311=AXIS2_PLACEMENT_3D('',#441,#442,#443);
#312=DRAUGHTING_PRE_DEFINED_CURVE_FONT('continuous');
#313=COLOUR_RGB('',0.509803950786591,0.509803950786591,0.588235318660736);
#314=AXIS2_PLACEMENT_3D('',#444,#445,#446);
#315=SURFACE_SIDE_STYLE('',(#447));
#316=EDGE_LOOP('',(#448,#449,#450,#451));
#317=AXIS2_PLACEMENT_3D('',#452,#453,#454);
#318=PRE_DEFINED_MARKER('');
#319=COLOUR_RGB('',0.509803950786591,0.509803950786591,0.588235318660736);
#320=SURFACE_SIDE_STYLE('',(#455));
#321=EDGE_LOOP('',(#456,#457));
#322=EDGE_LOOP('',(#458,#459));
#323=AXIS2_PLACEMENT_3D('',#460,#461,#462);
#324=PRE_DEFINED_MARKER('');
#325=COLOUR_RGB('',0.509803950786591,0.509803950786591,0.588235318660736);
#326=DRAUGHTING_PRE_DEFINED_CURVE_FONT('continuous');
#327=COLOUR_RGB('',0.509803950786591,0.509803950786591,0.588235318660736);
#328=AXIS2_PLACEMENT_3D('',#463,#464,#465);
#329=SURFACE_SIDE_STYLE('',(#466));
#330=EDGE_LOOP('',(#467,#468,#469,#470));
#331=AXIS2_PLACEMENT_3D('',#471,#472,#473);
#332=DRAUGHTING_PRE_DEFINED_CURVE_FONT('continuous');
#333=COLOUR_RGB('',0.509803950786591,0.509803950786591,0.588235318660736);
#334=CARTESIAN_POINT('',(1.0130869903522E-012,-2.99999999999997,1.49999999999997));
#335=VECTOR('',#474,1.0);
#336=SURFACE_SIDE_STYLE('',(#475));
#337=DRAUGHTING_PRE_DEFINED_CURVE_FONT('continuous');
#338=COLOUR_RGB('',0.509803950786591,0.509803950786591,0.588235318660736);
#339=AXIS2_PLACEMENT_3D('',#476,#477,#478);
#340=SURFACE_SIDE_STYLE('',(#479));
#341=EDGE_LOOP('',(#480,#481,#482,#483));
#342=AXIS2_PLACEMENT_3D('',#484,#485,#486);
#343=SURFACE_SIDE_STYLE('',(#487));
#344=EDGE_LOOP('',(#488,#489,#490,#491));
#345=AXIS2_PLACEMENT_3D('',#492,#493,#494);
#346=DRAUGHTING_PRE_DEFINED_CURVE_FONT('continuous');
#347=COLOUR_RGB('',0.509803950786591,0.509803950786591,0.588235318660736);
#348=CARTESIAN_POINT('',(-8.1911932431298E-013,2.46410161513778,4.99999999999997));
#349=VECTOR('',#495,1.0);
#350=PRE_DEFINED_MARKER('');
#351=COLOUR_RGB('',0.509803950786591,0.509803950786591,0.588235318660736);
#352=PRE_DEFINED_MARKER('');
#353=COLOUR_RGB('',0.509803950786591,0.509803950786591,0.588235318660736);
#354=PRE_DEFINED_MARKER('');
#355=COLOUR_RGB('',0.509803950786591,0.509803950786591,0.588235318660736);
#356=DRAUGHTING_PRE_DEFINED_CURVE_FONT('continuous');
#357=COLOUR_RGB('',0.509803950786591,0.509803950786591,0.588235318660736);
#358=AXIS2_PLACEMENT_3D('',#496,#497,#498);
#359=DRAUGHTING_PRE_DEFINED_CURVE_FONT('continuous');
#360=COLOUR_RGB('',0.509803950786591,0.509803950786591,0.588235318660736);
#361=AXIS2_PLACEMENT_3D('',#499,#500,#501);
#362=PRE_DEFINED_MARKER('');
#363=COLOUR_RGB('',0.509803950786591,0.509803950786591,0.588235318660736);
#364=SURFACE_SIDE_STYLE('',(#502));
#365=EDGE_LOOP('',(#503,#504,#505,#506));
#366=AXIS2_PLACEMENT_3D('',#507,#508,#509);
#367=DRAUGHTING_PRE_DEFINED_CURVE_FONT('continuous');
#368=COLOUR_RGB('',0.509803950786591,0.509803950786591,0.588235318660736);
#369=CARTESIAN_POINT('',(-6.63498150002103E-013,2.00000000000003,-2.40000000000005));
#370=VECTOR('',#510,1.0);
#371=DRAUGHTING_PRE_DEFINED_CURVE_FONT('continuous');
#372=COLOUR_RGB('',0.509803950786591,0.509803950786591,0.588235318660736);
#373=AXIS2_PLACEMENT_3D('',#511,#512,#513);
#374=DRAUGHTING_PRE_DEFINED_CURVE_FONT('continuous');
#375=COLOUR_RGB('',0.509803950786591,0.509803950786591,0.588235318660736);
#376=CARTESIAN_POINT('',(6.77769962281337E-013,-1.99999999999997,-2.40000000000005));
#377=VECTOR('',#514,1.0);
#378=DRAUGHTING_PRE_DEFINED_CURVE_FONT('continuous');
#379=COLOUR_RGB('',0.509803950786591,0.509803950786591,0.588235318660736);
#380=AXIS2_PLACEMENT_3D('',#515,#516,#517);
#381=SURFACE_SIDE_STYLE('',(#518));
#382=EDGE_LOOP('',(#519,#520,#521,#522));
#383=AXIS2_PLACEMENT_3D('',#523,#524,#525);
#384=PRE_DEFINED_MARKER('');
#385=COLOUR_RGB('',0.509803950786591,0.509803950786591,0.588235318660736);
#386=PRE_DEFINED_MARKER('');
#387=COLOUR_RGB('',0.509803950786591,0.509803950786591,0.588235318660736);
#388=DRAUGHTING_PRE_DEFINED_CURVE_FONT('continuous');
#389=COLOUR_RGB('',0.509803950786591,0.509803950786591,0.588235318660736);
#390=AXIS2_PLACEMENT_3D('',#526,#527,#528);
#391=DRAUGHTING_PRE_DEFINED_CURVE_FONT('continuous');
#392=COLOUR_RGB('',0.509803950786591,0.509803950786591,0.588235318660736);
#393=AXIS2_PLACEMENT_3D('',#529,#530,#531);
#394=PRE_DEFINED_MARKER('');
#395=COLOUR_RGB('',0.509803950786591,0.509803950786591,0.588235318660736);
#396=DRAUGHTING_PRE_DEFINED_CURVE_FONT('continuous');
#397=COLOUR_RGB('',0.509803950786591,0.509803950786591,0.588235318660736);
#398=CARTESIAN_POINT('',(-6.09589393874111E-013,1.83923048454136,-5.40000000000005));
#399=VECTOR('',#532,1.0);
#400=DRAUGHTING_PRE_DEFINED_CURVE_FONT('continuous');
#401=COLOUR_RGB('',0.509803950786591,0.509803950786591,0.588235318660736);
#402=CARTESIAN_POINT('',(6.23861206153344E-013,-1.8392304845413,-5.40000000000005));
#403=VECTOR('',#533,1.0);
#405=SURFACE_STYLE_FILL_AREA(#534);
#406=ORIENTED_EDGE('',*,*,#78,.F.);
#407=ORIENTED_EDGE('',*,*,#146,.F.);
#408=CARTESIAN_POINT('',(6.98174709206338E-015,-0.839230484541304,-6.00000000000003));
#409=DIRECTION('',(0.0,0.0,-1.0));
#410=DIRECTION('',(1.83690953073357E-016,1.0,0.0));
#411=DIRECTION('',(-0.0,-0.0,-1.0));
#412=CARTESIAN_POINT('',(7.13590613961699E-015,2.8421709430404E-014,-2.8421709430404E-014));
#413=DIRECTION('',(0.0,0.0,1.0));
#414=DIRECTION('',(3.35439488706242E-013,-1.0,0.0));
#415=CARTESIAN_POINT('',(7.13590613961699E-015,2.8421709430404E-014,-6.00000000000003));
#416=DIRECTION('',(0.0,0.0,1.0));
#417=DIRECTION('',(3.35439488706242E-013,-1.0,0.0));
#418=DIRECTION('',(-8.67864330119159E-014,0.258819045102523,0.965925826289068));
#419=CARTESIAN_POINT('',(7.13590613961699E-015,2.8421709430404E-014,-4.80000000000007));
#420=DIRECTION('',(0.0,0.0,1.0));
#421=DIRECTION('',(3.35439488706242E-013,-1.0,0.0));
#422=SURFACE_STYLE_FILL_AREA(#535);
#423=ORIENTED_EDGE('',*,*,#154,.F.);
#424=ORIENTED_EDGE('',*,*,#78,.T.);
#425=ORIENTED_EDGE('',*,*,#152,.F.);
#426=ORIENTED_EDGE('',*,*,#84,.F.);
#427=CARTESIAN_POINT('',(7.13590613961699E-015,2.8421709430404E-014,-5.40000000000005));
#428=DIRECTION('',(-0.0,0.0,1.0));
#429=DIRECTION('',(3.35439488706242E-013,-1.0,0.0));
#430=SURFACE_STYLE_FILL_AREA(#536);
#431=ORIENTED_EDGE('',*,*,#136,.T.);
#432=ORIENTED_EDGE('',*,*,#126,.F.);
#433=ORIENTED_EDGE('',*,*,#132,.T.);
#434=ORIENTED_EDGE('',*,*,#148,.T.);
#435=CARTESIAN_POINT('',(7.13590613961699E-015,2.8421709430404E-014,-2.40000000000005));
#436=DIRECTION('',(-0.0,-0.0,-1.0));
#437=DIRECTION('',(3.35439488706242E-013,-1.0,0.0));
#438=SURFACE_STYLE_FILL_AREA(#537);
#439=ORIENTED_EDGE('',*,*,#138,.T.);
#440=ORIENTED_EDGE('',*,*,#102,.T.);
#441=CARTESIAN_POINT('',(7.75480352505732E-015,-0.964101615137722,6.99999999999997));
#442=DIRECTION('',(0.0,0.0,1.0));
#443=DIRECTION('',(-1.83690953073357E-016,-1.0,0.0));
#444=CARTESIAN_POINT('',(7.13590613961699E-015,2.8421709430404E-014,-2.8421709430404E-014));
#445=DIRECTION('',(0.0,0.0,1.0));
#446=DIRECTION('',(3.35439488706242E-013,-1.0,0.0));
#447=SURFACE_STYLE_FILL_AREA(#538);
#448=ORIENTED_EDGE('',*,*,#136,.F.);
#449=ORIENTED_EDGE('',*,*,#84,.T.);
#450=ORIENTED_EDGE('',*,*,#132,.F.);
#451=ORIENTED_EDGE('',*,*,#92,.F.);
#452=CARTESIAN_POINT('',(7.13590613961699E-015,2.8421709430404E-014,-2.40000000000005));
#453=DIRECTION('',(-0.0,-0.0,-1.0));
#454=DIRECTION('',(3.35439488706242E-013,-1.0,0.0));
#455=SURFACE_STYLE_FILL_AREA(#539);
#456=ORIENTED_EDGE('',*,*,#76,.F.);
#457=ORIENTED_EDGE('',*,*,#124,.F.);
#458=ORIENTED_EDGE('',*,*,#92,.T.);
#459=ORIENTED_EDGE('',*,*,#126,.T.);
#460=CARTESIAN_POINT('',(7.04406066308031E-015,-2.49999999999997,-2.8421709430404E-014));
#461=DIRECTION('',(0.0,0.0,-1.0));
#462=DIRECTION('',(1.83690953073357E-016,1.0,0.0));
#463=CARTESIAN_POINT('',(7.13590613961699E-015,2.8421709430404E-014,6.99999999999997));
#464=DIRECTION('',(0.0,0.0,1.0));
#465=DIRECTION('',(3.35439488706242E-013,-1.0,0.0));
#466=SURFACE_STYLE_FILL_AREA(#540);
#467=ORIENTED_EDGE('',*,*,#106,.T.);
#468=ORIENTED_EDGE('',*,*,#134,.F.);
#469=ORIENTED_EDGE('',*,*,#74,.T.);
#470=ORIENTED_EDGE('',*,*,#124,.T.);
#471=CARTESIAN_POINT('',(7.13590613961699E-015,2.8421709430404E-014,1.49999999999997));
#472=DIRECTION('',(-0.0,-0.0,-1.0));
#473=DIRECTION('',(3.35439488706242E-013,-1.0,0.0));
#474=DIRECTION('',(0.0,0.0,1.0));
#475=SURFACE_STYLE_FILL_AREA(#541);
#476=CARTESIAN_POINT('',(7.13590613961699E-015,2.8421709430404E-014,2.99999999999997));
#477=DIRECTION('',(0.0,0.0,1.0));
#478=DIRECTION('',(3.35439488706242E-013,-1.0,0.0));
#479=SURFACE_STYLE_FILL_AREA(#542);
#480=ORIENTED_EDGE('',*,*,#154,.T.);
#481=ORIENTED_EDGE('',*,*,#148,.F.);
#482=ORIENTED_EDGE('',*,*,#152,.T.);
#483=ORIENTED_EDGE('',*,*,#146,.T.);
#484=CARTESIAN_POINT('',(7.13590613961699E-015,2.8421709430404E-014,-5.40000000000005));
#485=DIRECTION('',(-0.0,0.0,1.0));
#486=DIRECTION('',(3.35439488706242E-013,-1.0,0.0));
#487=SURFACE_STYLE_FILL_AREA(#543);
#488=ORIENTED_EDGE('',*,*,#80,.T.);
#489=ORIENTED_EDGE('',*,*,#102,.F.);
#490=ORIENTED_EDGE('',*,*,#116,.T.);
#491=ORIENTED_EDGE('',*,*,#134,.T.);
#492=CARTESIAN_POINT('',(7.13590613961699E-015,2.8421709430404E-014,4.99999999999997));
#493=DIRECTION('',(-0.0,-0.0,-1.0));
#494=DIRECTION('',(3.35439488706242E-013,-1.0,0.0));
#495=DIRECTION('',(-8.67864330119159E-014,0.258819045102523,-0.965925826289068));
#496=CARTESIAN_POINT('',(7.13590613961699E-015,2.8421709430404E-014,-2.8421709430404E-014));
#497=DIRECTION('',(0.0,0.0,1.0));
#498=DIRECTION('',(3.35439488706242E-013,-1.0,0.0));
#499=CARTESIAN_POINT('',(7.13590613961699E-015,2.8421709430404E-014,-2.8421709430404E-014));
#500=DIRECTION('',(0.0,0.0,1.0));
#501=DIRECTION('',(3.35439488706242E-013,-1.0,0.0));
#502=SURFACE_STYLE_FILL_AREA(#544);
#503=ORIENTED_EDGE('',*,*,#106,.F.);
#504=ORIENTED_EDGE('',*,*,#76,.T.);
#505=ORIENTED_EDGE('',*,*,#74,.F.);
#506=ORIENTED_EDGE('',*,*,#110,.F.);
#507=CARTESIAN_POINT('',(7.13590613961699E-015,2.8421709430404E-014,1.49999999999997));
#508=DIRECTION('',(-0.0,-0.0,-1.0));
#509=DIRECTION('',(3.35439488706242E-013,-1.0,0.0));
#510=DIRECTION('',(-0.0,-0.0,-1.0));
#511=CARTESIAN_POINT('',(7.13590613961699E-015,2.8421709430404E-014,2.99999999999997));
#512=DIRECTION('',(0.0,0.0,1.0));
#513=DIRECTION('',(3.35439488706242E-013,-1.0,0.0));
#514=DIRECTION('',(0.0,0.0,1.0));
#515=CARTESIAN_POINT('',(7.13590613961699E-015,2.8421709430404E-014,6.99999999999997));
#516=DIRECTION('',(0.0,0.0,1.0));
#517=DIRECTION('',(3.35439488706242E-013,-1.0,0.0));
#518=SURFACE_STYLE_FILL_AREA(#545);
#519=ORIENTED_EDGE('',*,*,#80,.F.);
#520=ORIENTED_EDGE('',*,*,#110,.T.);
#521=ORIENTED_EDGE('',*,*,#116,.F.);
#522=ORIENTED_EDGE('',*,*,#138,.F.);
#523=CARTESIAN_POINT('',(7.13590613961699E-015,2.8421709430404E-014,4.99999999999997));
#524=DIRECTION('',(-0.0,-0.0,-1.0));
#525=DIRECTION('',(3.35439488706242E-013,-1.0,0.0));
#526=CARTESIAN_POINT('',(7.13590613961699E-015,2.8421709430404E-014,-6.00000000000003));
#527=DIRECTION('',(0.0,0.0,1.0));
#528=DIRECTION('',(3.35439488706242E-013,-1.0,0.0));
#529=CARTESIAN_POINT('',(7.13590613961699E-015,2.8421709430404E-014,-4.80000000000007));
#530=DIRECTION('',(0.0,0.0,1.0));
#531=DIRECTION('',(3.35439488706242E-013,-1.0,0.0));
#532=DIRECTION('',(8.6786433011915E-014,-0.25881904510252,-0.965925826289068));
#533=DIRECTION('',(8.6786433011915E-014,-0.25881904510252,0.965925826289068));
#534=FILL_AREA_STYLE('',(#546));
#535=FILL_AREA_STYLE('',(#547));
#536=FILL_AREA_STYLE('',(#548));
#537=FILL_AREA_STYLE('',(#549));
#538=FILL_AREA_STYLE('',(#550));
#539=FILL_AREA_STYLE('',(#551));
#540=FILL_AREA_STYLE('',(#552));
#541=FILL_AREA_STYLE('',(#553));
#542=FILL_AREA_STYLE('',(#554));
#543=FILL_AREA_STYLE('',(#555));
#544=FILL_AREA_STYLE('',(#556));
#545=FILL_AREA_STYLE('',(#557));
#546=FILL_AREA_STYLE_COLOUR('',#558);
#547=FILL_AREA_STYLE_COLOUR('',#559);
#548=FILL_AREA_STYLE_COLOUR('',#560);
#549=FILL_AREA_STYLE_COLOUR('',#561);
#550=FILL_AREA_STYLE_COLOUR('',#562);
#551=FILL_AREA_STYLE_COLOUR('',#563);
#552=FILL_AREA_STYLE_COLOUR('',#564);
#553=FILL_AREA_STYLE_COLOUR('',#565);
#554=FILL_AREA_STYLE_COLOUR('',#566);
#555=FILL_AREA_STYLE_COLOUR('',#567);
#556=FILL_AREA_STYLE_COLOUR('',#568);
#557=FILL_AREA_STYLE_COLOUR('',#569);
#558=COLOUR_RGB('',0.509803950786591,0.509803950786591,0.588235318660736);
#559=COLOUR_RGB('',0.509803950786591,0.509803950786591,0.588235318660736);
#560=COLOUR_RGB('',0.509803950786591,0.509803950786591,0.588235318660736);
#561=COLOUR_RGB('',0.509803950786591,0.509803950786591,0.588235318660736);
#562=COLOUR_RGB('',0.509803950786591,0.509803950786591,0.588235318660736);
#563=COLOUR_RGB('',0.509803950786591,0.509803950786591,0.588235318660736);
#564=COLOUR_RGB('',0.509803950786591,0.509803950786591,0.588235318660736);
#565=COLOUR_RGB('',0.509803950786591,0.509803950786591,0.588235318660736);
#566=COLOUR_RGB('',0.509803950786591,0.509803950786591,0.588235318660736);
#567=COLOUR_RGB('',0.509803950786591,0.509803950786591,0.588235318660736);
#568=COLOUR_RGB('',0.509803950786591,0.509803950786591,0.588235318660736);
#569=COLOUR_RGB('',0.509803950786591,0.509803950786591,0.588235318660736);
ENDSEC;
END-ISO-10303-21;
