ISO-10303-21;
HEADER;
FILE_DESCRIPTION(('STEP AP214'),'1');
FILE_NAME(' ','  ',('TraceParts'),('TraceParts S.A.'),'XStep 1.0',' ',' ');
FILE_SCHEMA(('automotive_design'));
ENDSEC;
DATA;
#1=MECHANICAL_DESIGN_GEOMETRIC_PRESENTATION_REPRESENTATION(' ',(#10,#11,#12,#13,#14,#15,#16,#17,#18,#19,#20,#21,#22,#23,#24,#25,#26,#27,#28,#29,#30,#31,#32,#33,#34,#35,#36,#37,#38,#39,#40,#41,#42,#43,#44),#6);
#2=PRODUCT_DEFINITION_CONTEXT('',#45,'design');
#3=APPLICATION_PROTOCOL_DEFINITION('INTERNATIONAL STANDARD','automotive_design',1994,#45);
#4=PRODUCT_CATEGORY_RELATIONSHIP('NONE','NONE',#46,#47);
#5=SHAPE_DEFINITION_REPRESENTATION(#48,#49);
#6= (GEOMETRIC_REPRESENTATION_CONTEXT(3)GLOBAL_UNCERTAINTY_ASSIGNED_CONTEXT((#52))GLOBAL_UNIT_ASSIGNED_CONTEXT((#54,#55,#56))REPRESENTATION_CONTEXT('NONE','WORKSPACE'));
#10=STYLED_ITEM('',(#58),#59);
#11=STYLED_ITEM('',(#60),#61);
#12=STYLED_ITEM('',(#62),#63);
#13=STYLED_ITEM('',(#64),#65);
#14=STYLED_ITEM('',(#66),#67);
#15=STYLED_ITEM('',(#68),#69);
#16=STYLED_ITEM('',(#70),#71);
#17=STYLED_ITEM('',(#72),#73);
#18=STYLED_ITEM('',(#74),#75);
#19=STYLED_ITEM('',(#76),#77);
#20=STYLED_ITEM('',(#78),#79);
#21=STYLED_ITEM('',(#80),#81);
#22=STYLED_ITEM('',(#82),#83);
#23=STYLED_ITEM('',(#84),#85);
#24=STYLED_ITEM('',(#86),#87);
#25=STYLED_ITEM('',(#88),#89);
#26=STYLED_ITEM('',(#90),#91);
#27=STYLED_ITEM('',(#92),#93);
#28=STYLED_ITEM('',(#94),#95);
#29=STYLED_ITEM('',(#96),#97);
#30=STYLED_ITEM('',(#98),#99);
#31=STYLED_ITEM('',(#100),#101);
#32=STYLED_ITEM('',(#102),#103);
#33=STYLED_ITEM('',(#104),#105);
#34=STYLED_ITEM('',(#106),#107);
#35=STYLED_ITEM('',(#108),#109);
#36=STYLED_ITEM('',(#110),#111);
#37=STYLED_ITEM('',(#112),#113);
#38=STYLED_ITEM('',(#114),#115);
#39=STYLED_ITEM('',(#116),#117);
#40=STYLED_ITEM('',(#118),#119);
#41=STYLED_ITEM('',(#120),#121);
#42=STYLED_ITEM('',(#122),#123);
#43=STYLED_ITEM('',(#124),#125);
#44=STYLED_ITEM('',(#126),#127);
#45=APPLICATION_CONTEXT(' ');
#46=PRODUCT_CATEGORY('part','NONE');
#47=PRODUCT_RELATED_PRODUCT_CATEGORY('detail',' ',(#128));
#48=PRODUCT_DEFINITION_SHAPE('NONE','NONE',#129);
#49=ADVANCED_BREP_SHAPE_REPRESENTATION('1',(#63,#130),#6);
#52=UNCERTAINTY_MEASURE_WITH_UNIT(LENGTH_MEASURE(1.0E-006),#54,'','');
#54= (CONVERSION_BASED_UNIT('MILLIMETRE',#133)LENGTH_UNIT()NAMED_UNIT(#136));
#55= (NAMED_UNIT(#138)PLANE_ANGLE_UNIT()SI_UNIT($,.RADIAN.));
#56= (NAMED_UNIT(#138)SOLID_ANGLE_UNIT()SI_UNIT($,.STERADIAN.));
#58=PRESENTATION_STYLE_ASSIGNMENT((#144));
#59=EDGE_CURVE('',#89,#95,#145,.T.);
#60=PRESENTATION_STYLE_ASSIGNMENT((#146));
#61=EDGE_CURVE('',#73,#127,#147,.T.);
#62=PRESENTATION_STYLE_ASSIGNMENT((#148));
#63=MANIFOLD_SOLID_BREP('1',#149);
#64=PRESENTATION_STYLE_ASSIGNMENT((#150));
#65=EDGE_CURVE('',#127,#123,#151,.T.);
#66=PRESENTATION_STYLE_ASSIGNMENT((#152));
#67=ADVANCED_FACE('',(#153),#154,.T.);
#68=PRESENTATION_STYLE_ASSIGNMENT((#155));
#69=EDGE_CURVE('',#83,#119,#156,.T.);
#70=PRESENTATION_STYLE_ASSIGNMENT((#157));
#71=VERTEX_POINT('',#158);
#72=PRESENTATION_STYLE_ASSIGNMENT((#159));
#73=VERTEX_POINT('',#160);
#74=PRESENTATION_STYLE_ASSIGNMENT((#161));
#75=EDGE_CURVE('',#95,#89,#162,.T.);
#76=PRESENTATION_STYLE_ASSIGNMENT((#163));
#77=ADVANCED_FACE('',(#164),#165,.F.);
#78=PRESENTATION_STYLE_ASSIGNMENT((#166));
#79=ADVANCED_FACE('',(#167),#168,.F.);
#80=PRESENTATION_STYLE_ASSIGNMENT((#169));
#81=EDGE_CURVE('',#127,#73,#170,.T.);
#82=PRESENTATION_STYLE_ASSIGNMENT((#171));
#83=VERTEX_POINT('',#172);
#84=PRESENTATION_STYLE_ASSIGNMENT((#173));
#85=ADVANCED_FACE('',(#174,#175),#176,.T.);
#86=PRESENTATION_STYLE_ASSIGNMENT((#177));
#87=EDGE_CURVE('',#123,#71,#178,.T.);
#88=PRESENTATION_STYLE_ASSIGNMENT((#179));
#89=VERTEX_POINT('',#180);
#90=PRESENTATION_STYLE_ASSIGNMENT((#181));
#91=EDGE_CURVE('',#97,#117,#182,.T.);
#92=PRESENTATION_STYLE_ASSIGNMENT((#183));
#93=ADVANCED_FACE('',(#184,#185),#186,.T.);
#94=PRESENTATION_STYLE_ASSIGNMENT((#187));
#95=VERTEX_POINT('',#188);
#96=PRESENTATION_STYLE_ASSIGNMENT((#189));
#97=VERTEX_POINT('',#190);
#98=PRESENTATION_STYLE_ASSIGNMENT((#191));
#99=EDGE_CURVE('',#71,#123,#192,.T.);
#100=PRESENTATION_STYLE_ASSIGNMENT((#193));
#101=EDGE_CURVE('',#123,#117,#194,.T.);
#102=PRESENTATION_STYLE_ASSIGNMENT((#195));
#103=EDGE_CURVE('',#71,#73,#196,.T.);
#104=PRESENTATION_STYLE_ASSIGNMENT((#197));
#105=ADVANCED_FACE('',(#198),#199,.F.);
#106=PRESENTATION_STYLE_ASSIGNMENT((#200));
#107=EDGE_CURVE('',#119,#83,#201,.T.);
#108=PRESENTATION_STYLE_ASSIGNMENT((#202));
#109=ADVANCED_FACE('',(#203),#204,.T.);
#110=PRESENTATION_STYLE_ASSIGNMENT((#205));
#111=EDGE_CURVE('',#117,#97,#206,.T.);
#112=PRESENTATION_STYLE_ASSIGNMENT((#207));
#113=EDGE_CURVE('',#119,#95,#208,.T.);
#114=PRESENTATION_STYLE_ASSIGNMENT((#209));
#115=ADVANCED_FACE('',(#210),#211,.F.);
#116=PRESENTATION_STYLE_ASSIGNMENT((#212));
#117=VERTEX_POINT('',#213);
#118=PRESENTATION_STYLE_ASSIGNMENT((#214));
#119=VERTEX_POINT('',#215);
#120=PRESENTATION_STYLE_ASSIGNMENT((#216));
#121=EDGE_CURVE('',#89,#83,#217,.T.);
#122=PRESENTATION_STYLE_ASSIGNMENT((#218));
#123=VERTEX_POINT('',#219);
#124=PRESENTATION_STYLE_ASSIGNMENT((#220));
#125=EDGE_CURVE('',#97,#71,#221,.T.);
#126=PRESENTATION_STYLE_ASSIGNMENT((#222));
#127=VERTEX_POINT('',#223);
#128=PRODUCT('1','1','PART-1-DESC',(#224));
#129=PRODUCT_DEFINITION('NONE','NONE',#225,#2);
#130=AXIS2_PLACEMENT_3D('',#226,#227,#228);
#133=LENGTH_MEASURE_WITH_UNIT(LENGTH_MEASURE(1.0),#229);
#136=DIMENSIONAL_EXPONENTS(1.0,0.0,0.0,0.0,0.0,0.0,0.0);
#138=DIMENSIONAL_EXPONENTS(0.0,0.0,0.0,0.0,0.0,0.0,0.0);
#144=CURVE_STYLE('',#230,POSITIVE_LENGTH_MEASURE(1.0E-006),#231);
#145=CIRCLE('',#232,51.4999999999999);
#146=CURVE_STYLE('',#233,POSITIVE_LENGTH_MEASURE(1.0E-006),#234);
#147=CIRCLE('',#235,32.5);
#148=SURFACE_STYLE_USAGE(.BOTH.,#236);
#149=CLOSED_SHELL('',(#105,#67,#79,#77,#85,#109,#93,#115));
#150=CURVE_STYLE('',#237,POSITIVE_LENGTH_MEASURE(1.0E-006),#238);
#151=LINE('',#239,#240);
#152=SURFACE_STYLE_USAGE(.BOTH.,#241);
#153=FACE_OUTER_BOUND('',#242,.T.);
#154=CYLINDRICAL_SURFACE('',#243,51.4999999999999);
#155=CURVE_STYLE('',#244,POSITIVE_LENGTH_MEASURE(1.0E-006),#245);
#156=CIRCLE('',#246,51.4999999999999);
#157=POINT_STYLE(' ',#247,POSITIVE_LENGTH_MEASURE(1.0E-006),#248);
#158=CARTESIAN_POINT('',(-32.5,9.29318894394775E-015,17.2057713659399));
#159=POINT_STYLE(' ',#249,POSITIVE_LENGTH_MEASURE(1.0E-006),#250);
#160=CARTESIAN_POINT('',(-32.5,8.23967409709049E-015,-2.8421709430404E-014));
#161=CURVE_STYLE('',#251,POSITIVE_LENGTH_MEASURE(1.0E-006),#252);
#162=CIRCLE('',#253,51.4999999999999);
#163=SURFACE_STYLE_USAGE(.BOTH.,#254);
#164=FACE_OUTER_BOUND('',#255,.T.);
#165=CONICAL_SURFACE('',#256,39.25,1.04719755119659);
#166=SURFACE_STYLE_USAGE(.BOTH.,#257);
#167=FACE_OUTER_BOUND('',#258,.T.);
#168=CONICAL_SURFACE('',#259,39.25,1.04719755119659);
#169=CURVE_STYLE('',#260,POSITIVE_LENGTH_MEASURE(1.0E-006),#261);
#170=CIRCLE('',#262,32.5);
#171=POINT_STYLE(' ',#263,POSITIVE_LENGTH_MEASURE(1.0E-006),#264);
#172=CARTESIAN_POINT('',(51.4999999999999,2.87874573376414E-014,25.0));
#173=SURFACE_STYLE_USAGE(.BOTH.,#265);
#174=FACE_OUTER_BOUND('',#266,.T.);
#175=FACE_BOUND('',#267,.T.);
#176=PLANE('',#268);
#177=CURVE_STYLE('',#269,POSITIVE_LENGTH_MEASURE(1.0E-006),#270);
#178=CIRCLE('',#271,32.5);
#179=POINT_STYLE(' ',#272,POSITIVE_LENGTH_MEASURE(1.0E-006),#273);
#180=CARTESIAN_POINT('',(51.4999999999999,2.87874573376414E-014,-2.8421709430404E-014));
#181=CURVE_STYLE('',#274,POSITIVE_LENGTH_MEASURE(1.0E-006),#275);
#182=CIRCLE('',#276,45.9999999999999);
#183=SURFACE_STYLE_USAGE(.BOTH.,#277);
#184=FACE_BOUND('',#278,.T.);
#185=FACE_OUTER_BOUND('',#279,.T.);
#186=PLANE('',#280);
#187=POINT_STYLE(' ',#281,POSITIVE_LENGTH_MEASURE(1.0E-006),#282);
#188=CARTESIAN_POINT('',(-51.4999999999999,5.91292202482799E-015,-2.8421709430404E-014));
#189=POINT_STYLE(' ',#283,POSITIVE_LENGTH_MEASURE(1.0E-006),#284);
#190=CARTESIAN_POINT('',(-45.9999999999999,8.11721346170826E-015,25.0));
#191=CURVE_STYLE('',#285,POSITIVE_LENGTH_MEASURE(1.0E-006),#286);
#192=CIRCLE('',#287,32.5);
#193=CURVE_STYLE('',#288,POSITIVE_LENGTH_MEASURE(1.0E-006),#289);
#194=LINE('',#290,#291);
#195=CURVE_STYLE('',#292,POSITIVE_LENGTH_MEASURE(1.0E-006),#293);
#196=LINE('',#294,#295);
#197=SURFACE_STYLE_USAGE(.BOTH.,#296);
#198=FACE_OUTER_BOUND('',#297,.T.);
#199=CYLINDRICAL_SURFACE('',#298,32.5);
#200=CURVE_STYLE('',#299,POSITIVE_LENGTH_MEASURE(1.0E-006),#300);
#201=CIRCLE('',#301,51.4999999999999);
#202=SURFACE_STYLE_USAGE(.BOTH.,#302);
#203=FACE_OUTER_BOUND('',#303,.T.);
#204=CYLINDRICAL_SURFACE('',#304,51.4999999999999);
#205=CURVE_STYLE('',#305,POSITIVE_LENGTH_MEASURE(1.0E-006),#306);
#206=CIRCLE('',#307,45.9999999999999);
#207=CURVE_STYLE('',#308,POSITIVE_LENGTH_MEASURE(1.0E-006),#309);
#208=LINE('',#310,#311);
#209=SURFACE_STYLE_USAGE(.BOTH.,#312);
#210=FACE_OUTER_BOUND('',#313,.T.);
#211=CYLINDRICAL_SURFACE('',#314,32.5);
#212=POINT_STYLE(' ',#315,POSITIVE_LENGTH_MEASURE(1.0E-006),#316);
#213=CARTESIAN_POINT('',(45.9999999999999,2.71815582975263E-014,25.0));
#214=POINT_STYLE(' ',#317,POSITIVE_LENGTH_MEASURE(1.0E-006),#318);
#215=CARTESIAN_POINT('',(-51.4999999999999,7.44367996710596E-015,25.0));
#216=CURVE_STYLE('',#319,POSITIVE_LENGTH_MEASURE(1.0E-006),#320);
#217=LINE('',#321,#322);
#218=POINT_STYLE(' ',#323,POSITIVE_LENGTH_MEASURE(1.0E-006),#324);
#219=CARTESIAN_POINT('',(32.5,2.3239806108153E-014,17.2057713659399));
#220=CURVE_STYLE('',#325,POSITIVE_LENGTH_MEASURE(1.0E-006),#326);
#221=LINE('',#327,#328);
#222=POINT_STYLE(' ',#329,POSITIVE_LENGTH_MEASURE(1.0E-006),#330);
#223=CARTESIAN_POINT('',(32.5,2.3239806108153E-014,-2.8421709430404E-014));
#224=PRODUCT_CONTEXT('',#45,'mechanical');
#225=PRODUCT_DEFINITION_FORMATION_WITH_SPECIFIED_SOURCE(' ','NONE',#128,.NOT_KNOWN.);
#226=CARTESIAN_POINT('',(0.0,0.0,0.0));
#227=DIRECTION('',(0.0,0.0,1.0));
#228=DIRECTION('',(1.0,0.0,0.0));
#229= (NAMED_UNIT(#136)LENGTH_UNIT()SI_UNIT(.MILLI.,.METRE.));
#230=DRAUGHTING_PRE_DEFINED_CURVE_FONT('continuous');
#231=COLOUR_RGB('',0.509803950786591,0.509803950786591,0.588235318660736);
#232=AXIS2_PLACEMENT_3D('',#332,#333,#334);
#233=DRAUGHTING_PRE_DEFINED_CURVE_FONT('continuous');
#234=COLOUR_RGB('',0.509803950786591,0.509803950786591,0.588235318660736);
#235=AXIS2_PLACEMENT_3D('',#335,#336,#337);
#236=SURFACE_SIDE_STYLE('',(#338));
#237=DRAUGHTING_PRE_DEFINED_CURVE_FONT('continuous');
#238=COLOUR_RGB('',0.509803950786591,0.509803950786591,0.588235318660736);
#239=CARTESIAN_POINT('',(32.5,2.3239806108153E-014,8.60288568296994));
#240=VECTOR('',#339,1.0);
#241=SURFACE_SIDE_STYLE('',(#340));
#242=EDGE_LOOP('',(#341,#342,#343,#344));
#243=AXIS2_PLACEMENT_3D('',#345,#346,#347);
#244=DRAUGHTING_PRE_DEFINED_CURVE_FONT('continuous');
#245=COLOUR_RGB('',0.509803950786591,0.509803950786591,0.588235318660736);
#246=AXIS2_PLACEMENT_3D('',#348,#349,#350);
#247=PRE_DEFINED_MARKER('');
#248=COLOUR_RGB('',0.509803950786591,0.509803950786591,0.588235318660736);
#249=PRE_DEFINED_MARKER('');
#250=COLOUR_RGB('',0.509803950786591,0.509803950786591,0.588235318660736);
#251=DRAUGHTING_PRE_DEFINED_CURVE_FONT('continuous');
#252=COLOUR_RGB('',0.509803950786591,0.509803950786591,0.588235318660736);
#253=AXIS2_PLACEMENT_3D('',#351,#352,#353);
#254=SURFACE_SIDE_STYLE('',(#354));
#255=EDGE_LOOP('',(#355,#356,#357,#358));
#256=AXIS2_PLACEMENT_3D('',#359,#360,#361);
#257=SURFACE_SIDE_STYLE('',(#362));
#258=EDGE_LOOP('',(#363,#364,#365,#366));
#259=AXIS2_PLACEMENT_3D('',#367,#368,#369);
#260=DRAUGHTING_PRE_DEFINED_CURVE_FONT('continuous');
#261=COLOUR_RGB('',0.509803950786591,0.509803950786591,0.588235318660736);
#262=AXIS2_PLACEMENT_3D('',#370,#371,#372);
#263=PRE_DEFINED_MARKER('');
#264=COLOUR_RGB('',0.509803950786591,0.509803950786591,0.588235318660736);
#265=SURFACE_SIDE_STYLE('',(#373));
#266=EDGE_LOOP('',(#374,#375));
#267=EDGE_LOOP('',(#376,#377));
#268=AXIS2_PLACEMENT_3D('',#378,#379,#380);
#269=DRAUGHTING_PRE_DEFINED_CURVE_FONT('continuous');
#270=COLOUR_RGB('',0.509803950786591,0.509803950786591,0.588235318660736);
#271=AXIS2_PLACEMENT_3D('',#381,#382,#383);
#272=PRE_DEFINED_MARKER('');
#273=COLOUR_RGB('',0.509803950786591,0.509803950786591,0.588235318660736);
#274=DRAUGHTING_PRE_DEFINED_CURVE_FONT('continuous');
#275=COLOUR_RGB('',0.509803950786591,0.509803950786591,0.588235318660736);
#276=AXIS2_PLACEMENT_3D('',#384,#385,#386);
#277=SURFACE_SIDE_STYLE('',(#387));
#278=EDGE_LOOP('',(#388,#389));
#279=EDGE_LOOP('',(#390,#391));
#280=AXIS2_PLACEMENT_3D('',#392,#393,#394);
#281=PRE_DEFINED_MARKER('');
#282=COLOUR_RGB('',0.509803950786591,0.509803950786591,0.588235318660736);
#283=PRE_DEFINED_MARKER('');
#284=COLOUR_RGB('',0.509803950786591,0.509803950786591,0.588235318660736);
#285=DRAUGHTING_PRE_DEFINED_CURVE_FONT('continuous');
#286=COLOUR_RGB('',0.509803950786591,0.509803950786591,0.588235318660736);
#287=AXIS2_PLACEMENT_3D('',#395,#396,#397);
#288=DRAUGHTING_PRE_DEFINED_CURVE_FONT('continuous');
#289=COLOUR_RGB('',0.509803950786591,0.509803950786591,0.588235318660736);
#290=CARTESIAN_POINT('',(39.25,2.52106822028396E-014,21.1028856829699));
#291=VECTOR('',#398,1.0);
#292=DRAUGHTING_PRE_DEFINED_CURVE_FONT('continuous');
#293=COLOUR_RGB('',0.509803950786591,0.509803950786591,0.588235318660736);
#294=CARTESIAN_POINT('',(-32.5,4.2609992704294E-015,8.60288568296994));
#295=VECTOR('',#399,1.0);
#296=SURFACE_SIDE_STYLE('',(#400));
#297=EDGE_LOOP('',(#401,#402,#403,#404));
#298=AXIS2_PLACEMENT_3D('',#405,#406,#407);
#299=DRAUGHTING_PRE_DEFINED_CURVE_FONT('continuous');
#300=COLOUR_RGB('',0.509803950786591,0.509803950786591,0.588235318660736);
#301=AXIS2_PLACEMENT_3D('',#408,#409,#410);
#302=SURFACE_SIDE_STYLE('',(#411));
#303=EDGE_LOOP('',(#412,#413,#414,#415));
#304=AXIS2_PLACEMENT_3D('',#416,#417,#418);
#305=DRAUGHTING_PRE_DEFINED_CURVE_FONT('continuous');
#306=COLOUR_RGB('',0.509803950786591,0.509803950786591,0.588235318660736);
#307=AXIS2_PLACEMENT_3D('',#419,#420,#421);
#308=DRAUGHTING_PRE_DEFINED_CURVE_FONT('continuous');
#309=COLOUR_RGB('',0.509803950786591,0.509803950786591,0.588235318660736);
#310=CARTESIAN_POINT('',(-51.4999999999999,-1.28665195905901E-015,12.5));
#311=VECTOR('',#422,1.0);
#312=SURFACE_SIDE_STYLE('',(#423));
#313=EDGE_LOOP('',(#424,#425,#426,#427));
#314=AXIS2_PLACEMENT_3D('',#428,#429,#430);
#315=PRE_DEFINED_MARKER('');
#316=COLOUR_RGB('',0.509803950786591,0.509803950786591,0.588235318660736);
#317=PRE_DEFINED_MARKER('');
#318=COLOUR_RGB('',0.509803950786591,0.509803950786591,0.588235318660736);
#319=DRAUGHTING_PRE_DEFINED_CURVE_FONT('continuous');
#320=COLOUR_RGB('',0.509803950786591,0.509803950786591,0.588235318660736);
#321=CARTESIAN_POINT('',(51.4999999999999,2.87874573376414E-014,12.5));
#322=VECTOR('',#431,1.0);
#323=PRE_DEFINED_MARKER('');
#324=COLOUR_RGB('',0.509803950786591,0.509803950786591,0.588235318660736);
#325=DRAUGHTING_PRE_DEFINED_CURVE_FONT('continuous');
#326=COLOUR_RGB('',0.509803950786591,0.509803950786591,0.588235318660736);
#327=CARTESIAN_POINT('',(-39.25,2.29012317574273E-015,21.1028856829699));
#328=VECTOR('',#432,1.0);
#329=PRE_DEFINED_MARKER('');
#330=COLOUR_RGB('',0.509803950786591,0.509803950786591,0.588235318660736);
#332=CARTESIAN_POINT('',(0.0,1.37504026892912E-014,-2.8421709430404E-014));
#333=DIRECTION('',(-0.0,0.0,-1.0));
#334=DIRECTION('',(-1.0,-1.69521008275048E-016,0.0));
#335=CARTESIAN_POINT('',(0.0,1.37504026892912E-014,-2.8421709430404E-014));
#336=DIRECTION('',(-0.0,0.0,-1.0));
#337=DIRECTION('',(-1.0,-1.69521008275048E-016,0.0));
#338=SURFACE_STYLE_FILL_AREA(#433);
#339=DIRECTION('',(0.0,0.0,1.0));
#340=SURFACE_STYLE_FILL_AREA(#434);
#341=ORIENTED_EDGE('',*,*,#113,.F.);
#342=ORIENTED_EDGE('',*,*,#107,.T.);
#343=ORIENTED_EDGE('',*,*,#121,.F.);
#344=ORIENTED_EDGE('',*,*,#75,.F.);
#345=CARTESIAN_POINT('',(0.0,1.37504026892912E-014,12.5));
#346=DIRECTION('',(0.0,-0.0,1.0));
#347=DIRECTION('',(-1.0,-1.69521008275048E-016,0.0));
#348=CARTESIAN_POINT('',(0.0,1.37504026892912E-014,25.0));
#349=DIRECTION('',(-0.0,0.0,-1.0));
#350=DIRECTION('',(-1.0,-1.69521008275048E-016,0.0));
#351=CARTESIAN_POINT('',(0.0,1.37504026892912E-014,-2.8421709430404E-014));
#352=DIRECTION('',(-0.0,0.0,-1.0));
#353=DIRECTION('',(-1.0,-1.69521008275048E-016,0.0));
#354=SURFACE_STYLE_FILL_AREA(#435);
#355=ORIENTED_EDGE('',*,*,#125,.T.);
#356=ORIENTED_EDGE('',*,*,#99,.T.);
#357=ORIENTED_EDGE('',*,*,#101,.T.);
#358=ORIENTED_EDGE('',*,*,#91,.F.);
#359=CARTESIAN_POINT('',(0.0,1.37504026892912E-014,21.1028856829699));
#360=DIRECTION('',(0.0,-0.0,1.0));
#361=DIRECTION('',(-1.0,-1.69521008275048E-016,0.0));
#362=SURFACE_STYLE_FILL_AREA(#436);
#363=ORIENTED_EDGE('',*,*,#125,.F.);
#364=ORIENTED_EDGE('',*,*,#111,.F.);
#365=ORIENTED_EDGE('',*,*,#101,.F.);
#366=ORIENTED_EDGE('',*,*,#87,.T.);
#367=CARTESIAN_POINT('',(0.0,1.37504026892912E-014,21.1028856829699));
#368=DIRECTION('',(0.0,-0.0,1.0));
#369=DIRECTION('',(-1.0,-1.69521008275048E-016,0.0));
#370=CARTESIAN_POINT('',(0.0,1.37504026892912E-014,-2.8421709430404E-014));
#371=DIRECTION('',(-0.0,0.0,-1.0));
#372=DIRECTION('',(-1.0,-1.69521008275048E-016,0.0));
#373=SURFACE_STYLE_FILL_AREA(#437);
#374=ORIENTED_EDGE('',*,*,#107,.F.);
#375=ORIENTED_EDGE('',*,*,#69,.F.);
#376=ORIENTED_EDGE('',*,*,#91,.T.);
#377=ORIENTED_EDGE('',*,*,#111,.T.);
#378=CARTESIAN_POINT('',(-48.7499999999999,7.78044671440711E-015,25.0));
#379=DIRECTION('',(0.0,0.0,1.0));
#380=DIRECTION('',(-1.0,-1.22460635382238E-016,0.0));
#381=CARTESIAN_POINT('',(0.0,1.37504026892912E-014,17.2057713659399));
#382=DIRECTION('',(-0.0,0.0,-1.0));
#383=DIRECTION('',(-1.0,-1.69521008275048E-016,0.0));
#384=CARTESIAN_POINT('',(0.0,1.37504026892912E-014,25.0));
#385=DIRECTION('',(-0.0,0.0,-1.0));
#386=DIRECTION('',(-1.0,-1.69521008275048E-016,0.0));
#387=SURFACE_STYLE_FILL_AREA(#438);
#388=ORIENTED_EDGE('',*,*,#61,.F.);
#389=ORIENTED_EDGE('',*,*,#81,.F.);
#390=ORIENTED_EDGE('',*,*,#75,.T.);
#391=ORIENTED_EDGE('',*,*,#59,.T.);
#392=CARTESIAN_POINT('',(-42.0,7.07629806095924E-015,-2.8421709430404E-014));
#393=DIRECTION('',(0.0,0.0,-1.0));
#394=DIRECTION('',(1.0,1.22460635382238E-016,0.0));
#395=CARTESIAN_POINT('',(0.0,1.37504026892912E-014,17.2057713659399));
#396=DIRECTION('',(-0.0,0.0,-1.0));
#397=DIRECTION('',(-1.0,-1.69521008275048E-016,0.0));
#398=DIRECTION('',(0.866025403784435,2.52863520845944E-016,0.500000000000007));
#399=DIRECTION('',(0.0,0.0,-1.0));
#400=SURFACE_STYLE_FILL_AREA(#439);
#401=ORIENTED_EDGE('',*,*,#103,.F.);
#402=ORIENTED_EDGE('',*,*,#87,.F.);
#403=ORIENTED_EDGE('',*,*,#65,.F.);
#404=ORIENTED_EDGE('',*,*,#81,.T.);
#405=CARTESIAN_POINT('',(0.0,1.37504026892912E-014,8.60288568296994));
#406=DIRECTION('',(0.0,-0.0,1.0));
#407=DIRECTION('',(-1.0,-1.69521008275048E-016,0.0));
#408=CARTESIAN_POINT('',(0.0,1.37504026892912E-014,25.0));
#409=DIRECTION('',(-0.0,0.0,-1.0));
#410=DIRECTION('',(-1.0,-1.69521008275048E-016,0.0));
#411=SURFACE_STYLE_FILL_AREA(#440);
#412=ORIENTED_EDGE('',*,*,#113,.T.);
#413=ORIENTED_EDGE('',*,*,#59,.F.);
#414=ORIENTED_EDGE('',*,*,#121,.T.);
#415=ORIENTED_EDGE('',*,*,#69,.T.);
#416=CARTESIAN_POINT('',(0.0,1.37504026892912E-014,12.5));
#417=DIRECTION('',(0.0,-0.0,1.0));
#418=DIRECTION('',(-1.0,-1.69521008275048E-016,0.0));
#419=CARTESIAN_POINT('',(0.0,1.37504026892912E-014,25.0));
#420=DIRECTION('',(-0.0,0.0,-1.0));
#421=DIRECTION('',(-1.0,-1.69521008275048E-016,0.0));
#422=DIRECTION('',(0.0,0.0,-1.0));
#423=SURFACE_STYLE_FILL_AREA(#441);
#424=ORIENTED_EDGE('',*,*,#103,.T.);
#425=ORIENTED_EDGE('',*,*,#61,.T.);
#426=ORIENTED_EDGE('',*,*,#65,.T.);
#427=ORIENTED_EDGE('',*,*,#99,.F.);
#428=CARTESIAN_POINT('',(0.0,1.37504026892912E-014,8.60288568296994));
#429=DIRECTION('',(0.0,-0.0,1.0));
#430=DIRECTION('',(-1.0,-1.69521008275048E-016,0.0));
#431=DIRECTION('',(-0.0,-0.0,1.0));
#432=DIRECTION('',(0.866025403784435,2.52863520845944E-016,-0.500000000000007));
#433=FILL_AREA_STYLE('',(#442));
#434=FILL_AREA_STYLE('',(#443));
#435=FILL_AREA_STYLE('',(#444));
#436=FILL_AREA_STYLE('',(#445));
#437=FILL_AREA_STYLE('',(#446));
#438=FILL_AREA_STYLE('',(#447));
#439=FILL_AREA_STYLE('',(#448));
#440=FILL_AREA_STYLE('',(#449));
#441=FILL_AREA_STYLE('',(#450));
#442=FILL_AREA_STYLE_COLOUR('',#451);
#443=FILL_AREA_STYLE_COLOUR('',#452);
#444=FILL_AREA_STYLE_COLOUR('',#453);
#445=FILL_AREA_STYLE_COLOUR('',#454);
#446=FILL_AREA_STYLE_COLOUR('',#455);
#447=FILL_AREA_STYLE_COLOUR('',#456);
#448=FILL_AREA_STYLE_COLOUR('',#457);
#449=FILL_AREA_STYLE_COLOUR('',#458);
#450=FILL_AREA_STYLE_COLOUR('',#459);
#451=COLOUR_RGB('',0.509803950786591,0.509803950786591,0.588235318660736);
#452=COLOUR_RGB('',0.509803950786591,0.509803950786591,0.588235318660736);
#453=COLOUR_RGB('',0.509803950786591,0.509803950786591,0.588235318660736);
#454=COLOUR_RGB('',0.509803950786591,0.509803950786591,0.588235318660736);
#455=COLOUR_RGB('',0.509803950786591,0.509803950786591,0.588235318660736);
#456=COLOUR_RGB('',0.509803950786591,0.509803950786591,0.588235318660736);
#457=COLOUR_RGB('',0.509803950786591,0.509803950786591,0.588235318660736);
#458=COLOUR_RGB('',0.509803950786591,0.509803950786591,0.588235318660736);
#459=COLOUR_RGB('',0.509803950786591,0.509803950786591,0.588235318660736);
ENDSEC;
END-ISO-10303-21;
