ISO-10303-21;
HEADER;
FILE_DESCRIPTION(('STEP AP214'),'1');
FILE_NAME(' ','  ',('TraceParts'),('TraceParts S.A.'),'XStep 1.0',' ',' ');
FILE_SCHEMA(('automotive_design'));
ENDSEC;
DATA;
#1=MECHANICAL_DESIGN_GEOMETRIC_PRESENTATION_REPRESENTATION(' ',(#10,#11,#12,#13,#14,#15,#16,#17,#18,#19,#20,#21,#22,#23,#24,#25,#26,#27,#28,#29,#30,#31,#32,#33,#34,#35,#36,#37,#38,#39,#40,#41,#42,#43,#44),#6);
#2=PRODUCT_DEFINITION_CONTEXT('',#45,'design');
#3=APPLICATION_PROTOCOL_DEFINITION('INTERNATIONAL STANDARD','automotive_design',1994,#45);
#4=PRODUCT_CATEGORY_RELATIONSHIP('NONE','NONE',#46,#47);
#5=SHAPE_DEFINITION_REPRESENTATION(#48,#49);
#6= (GEOMETRIC_REPRESENTATION_CONTEXT(3)GLOBAL_UNCERTAINTY_ASSIGNED_CONTEXT((#52))GLOBAL_UNIT_ASSIGNED_CONTEXT((#54,#55,#56))REPRESENTATION_CONTEXT('NONE','WORKSPACE'));
#10=STYLED_ITEM('',(#58),#59);
#11=STYLED_ITEM('',(#60),#61);
#12=STYLED_ITEM('',(#62),#63);
#13=STYLED_ITEM('',(#64),#65);
#14=STYLED_ITEM('',(#66),#67);
#15=STYLED_ITEM('',(#68),#69);
#16=STYLED_ITEM('',(#70),#71);
#17=STYLED_ITEM('',(#72),#73);
#18=STYLED_ITEM('',(#74),#75);
#19=STYLED_ITEM('',(#76),#77);
#20=STYLED_ITEM('',(#78),#79);
#21=STYLED_ITEM('',(#80),#81);
#22=STYLED_ITEM('',(#82),#83);
#23=STYLED_ITEM('',(#84),#85);
#24=STYLED_ITEM('',(#86),#87);
#25=STYLED_ITEM('',(#88),#89);
#26=STYLED_ITEM('',(#90),#91);
#27=STYLED_ITEM('',(#92),#93);
#28=STYLED_ITEM('',(#94),#95);
#29=STYLED_ITEM('',(#96),#97);
#30=STYLED_ITEM('',(#98),#99);
#31=STYLED_ITEM('',(#100),#101);
#32=STYLED_ITEM('',(#102),#103);
#33=STYLED_ITEM('',(#104),#105);
#34=STYLED_ITEM('',(#106),#107);
#35=STYLED_ITEM('',(#108),#109);
#36=STYLED_ITEM('',(#110),#111);
#37=STYLED_ITEM('',(#112),#113);
#38=STYLED_ITEM('',(#114),#115);
#39=STYLED_ITEM('',(#116),#117);
#40=STYLED_ITEM('',(#118),#119);
#41=STYLED_ITEM('',(#120),#121);
#42=STYLED_ITEM('',(#122),#123);
#43=STYLED_ITEM('',(#124),#125);
#44=STYLED_ITEM('',(#126),#127);
#45=APPLICATION_CONTEXT(' ');
#46=PRODUCT_CATEGORY('part','NONE');
#47=PRODUCT_RELATED_PRODUCT_CATEGORY('detail',' ',(#128));
#48=PRODUCT_DEFINITION_SHAPE('NONE','NONE',#129);
#49=ADVANCED_BREP_SHAPE_REPRESENTATION('1',(#65,#130),#6);
#52=UNCERTAINTY_MEASURE_WITH_UNIT(LENGTH_MEASURE(1.0E-006),#54,'','');
#54= (CONVERSION_BASED_UNIT('MILLIMETRE',#133)LENGTH_UNIT()NAMED_UNIT(#136));
#55= (NAMED_UNIT(#138)PLANE_ANGLE_UNIT()SI_UNIT($,.RADIAN.));
#56= (NAMED_UNIT(#138)SOLID_ANGLE_UNIT()SI_UNIT($,.STERADIAN.));
#58=PRESENTATION_STYLE_ASSIGNMENT((#144));
#59=VERTEX_POINT('',#145);
#60=PRESENTATION_STYLE_ASSIGNMENT((#146));
#61=EDGE_CURVE('',#85,#105,#147,.T.);
#62=PRESENTATION_STYLE_ASSIGNMENT((#148));
#63=EDGE_CURVE('',#97,#117,#149,.T.);
#64=PRESENTATION_STYLE_ASSIGNMENT((#150));
#65=MANIFOLD_SOLID_BREP('1',#151);
#66=PRESENTATION_STYLE_ASSIGNMENT((#152));
#67=EDGE_CURVE('',#71,#111,#153,.T.);
#68=PRESENTATION_STYLE_ASSIGNMENT((#154));
#69=EDGE_CURVE('',#127,#85,#155,.T.);
#70=PRESENTATION_STYLE_ASSIGNMENT((#156));
#71=VERTEX_POINT('',#157);
#72=PRESENTATION_STYLE_ASSIGNMENT((#158));
#73=EDGE_CURVE('',#97,#111,#159,.T.);
#74=PRESENTATION_STYLE_ASSIGNMENT((#160));
#75=EDGE_CURVE('',#105,#85,#161,.T.);
#76=PRESENTATION_STYLE_ASSIGNMENT((#162));
#77=ADVANCED_FACE('',(#163),#164,.F.);
#78=PRESENTATION_STYLE_ASSIGNMENT((#165));
#79=EDGE_CURVE('',#117,#97,#166,.T.);
#80=PRESENTATION_STYLE_ASSIGNMENT((#167));
#81=ADVANCED_FACE('',(#168),#169,.T.);
#82=PRESENTATION_STYLE_ASSIGNMENT((#170));
#83=ADVANCED_FACE('',(#171),#172,.F.);
#84=PRESENTATION_STYLE_ASSIGNMENT((#173));
#85=VERTEX_POINT('',#174);
#86=PRESENTATION_STYLE_ASSIGNMENT((#175));
#87=ADVANCED_FACE('',(#176),#177,.F.);
#88=PRESENTATION_STYLE_ASSIGNMENT((#178));
#89=EDGE_CURVE('',#93,#115,#179,.T.);
#90=PRESENTATION_STYLE_ASSIGNMENT((#180));
#91=EDGE_CURVE('',#111,#71,#181,.T.);
#92=PRESENTATION_STYLE_ASSIGNMENT((#182));
#93=VERTEX_POINT('',#183);
#94=PRESENTATION_STYLE_ASSIGNMENT((#184));
#95=EDGE_CURVE('',#105,#59,#185,.T.);
#96=PRESENTATION_STYLE_ASSIGNMENT((#186));
#97=VERTEX_POINT('',#187);
#98=PRESENTATION_STYLE_ASSIGNMENT((#188));
#99=EDGE_CURVE('',#59,#115,#189,.T.);
#100=PRESENTATION_STYLE_ASSIGNMENT((#190));
#101=EDGE_CURVE('',#127,#59,#191,.T.);
#102=PRESENTATION_STYLE_ASSIGNMENT((#192));
#103=ADVANCED_FACE('',(#193,#194),#195,.T.);
#104=PRESENTATION_STYLE_ASSIGNMENT((#196));
#105=VERTEX_POINT('',#197);
#106=PRESENTATION_STYLE_ASSIGNMENT((#198));
#107=EDGE_CURVE('',#115,#93,#199,.T.);
#108=PRESENTATION_STYLE_ASSIGNMENT((#200));
#109=EDGE_CURVE('',#59,#127,#201,.T.);
#110=PRESENTATION_STYLE_ASSIGNMENT((#202));
#111=VERTEX_POINT('',#203);
#112=PRESENTATION_STYLE_ASSIGNMENT((#204));
#113=ADVANCED_FACE('',(#205),#206,.F.);
#114=PRESENTATION_STYLE_ASSIGNMENT((#207));
#115=VERTEX_POINT('',#208);
#116=PRESENTATION_STYLE_ASSIGNMENT((#209));
#117=VERTEX_POINT('',#210);
#118=PRESENTATION_STYLE_ASSIGNMENT((#211));
#119=ADVANCED_FACE('',(#212,#213),#214,.T.);
#120=PRESENTATION_STYLE_ASSIGNMENT((#215));
#121=ADVANCED_FACE('',(#216),#217,.T.);
#122=PRESENTATION_STYLE_ASSIGNMENT((#218));
#123=EDGE_CURVE('',#71,#117,#219,.T.);
#124=PRESENTATION_STYLE_ASSIGNMENT((#220));
#125=EDGE_CURVE('',#93,#127,#221,.T.);
#126=PRESENTATION_STYLE_ASSIGNMENT((#222));
#127=VERTEX_POINT('',#223);
#128=PRODUCT('1','1','PART-1-DESC',(#224));
#129=PRODUCT_DEFINITION('NONE','NONE',#225,#2);
#130=AXIS2_PLACEMENT_3D('',#226,#227,#228);
#133=LENGTH_MEASURE_WITH_UNIT(LENGTH_MEASURE(1.0),#229);
#136=DIMENSIONAL_EXPONENTS(1.0,0.0,0.0,0.0,0.0,0.0,0.0);
#138=DIMENSIONAL_EXPONENTS(0.0,0.0,0.0,0.0,0.0,0.0,0.0);
#144=POINT_STYLE(' ',#230,POSITIVE_LENGTH_MEASURE(1.0E-006),#231);
#145=CARTESIAN_POINT('',(8.25,1.46667645539783E-014,3.60399638286304));
#146=CURVE_STYLE('',#232,POSITIVE_LENGTH_MEASURE(1.0E-006),#233);
#147=CIRCLE('',#234,8.25);
#148=CURVE_STYLE('',#235,POSITIVE_LENGTH_MEASURE(1.0E-006),#236);
#149=CIRCLE('',#237,19.9999999999999);
#150=SURFACE_STYLE_USAGE(.BOTH.,#238);
#151=CLOSED_SHELL('',(#113,#81,#77,#87,#119,#121,#103,#83));
#152=CURVE_STYLE('',#239,POSITIVE_LENGTH_MEASURE(1.0E-006),#240);
#153=CIRCLE('',#241,19.9999999999999);
#154=CURVE_STYLE('',#242,POSITIVE_LENGTH_MEASURE(1.0E-006),#243);
#155=LINE('',#244,#245);
#156=POINT_STYLE(' ',#246,POSITIVE_LENGTH_MEASURE(1.0E-006),#247);
#157=CARTESIAN_POINT('',(19.9999999999999,1.80674438016428E-014,-2.8421709430404E-014));
#158=CURVE_STYLE('',#248,POSITIVE_LENGTH_MEASURE(1.0E-006),#249);
#159=LINE('',#250,#251);
#160=CURVE_STYLE('',#252,POSITIVE_LENGTH_MEASURE(1.0E-006),#253);
#161=CIRCLE('',#254,8.25);
#162=SURFACE_STYLE_USAGE(.BOTH.,#255);
#163=FACE_OUTER_BOUND('',#256,.T.);
#164=CONICAL_SURFACE('',#257,10.325,1.04719755119659);
#165=CURVE_STYLE('',#258,POSITIVE_LENGTH_MEASURE(1.0E-006),#259);
#166=CIRCLE('',#260,19.9999999999999);
#167=SURFACE_STYLE_USAGE(.BOTH.,#261);
#168=FACE_OUTER_BOUND('',#262,.T.);
#169=CYLINDRICAL_SURFACE('',#263,19.9999999999999);
#170=SURFACE_STYLE_USAGE(.BOTH.,#264);
#171=FACE_OUTER_BOUND('',#265,.T.);
#172=CYLINDRICAL_SURFACE('',#266,8.25);
#173=POINT_STYLE(' ',#267,POSITIVE_LENGTH_MEASURE(1.0E-006),#268);
#174=CARTESIAN_POINT('',(-8.25,1.09013714448019E-014,-2.8421709430404E-014));
#175=SURFACE_STYLE_USAGE(.BOTH.,#269);
#176=FACE_OUTER_BOUND('',#270,.T.);
#177=CONICAL_SURFACE('',#271,10.325,1.04719755119659);
#178=CURVE_STYLE('',#272,POSITIVE_LENGTH_MEASURE(1.0E-006),#273);
#179=CIRCLE('',#274,12.3999999999999);
#180=CURVE_STYLE('',#275,POSITIVE_LENGTH_MEASURE(1.0E-006),#276);
#181=CIRCLE('',#277,19.9999999999999);
#182=POINT_STYLE(' ',#278,POSITIVE_LENGTH_MEASURE(1.0E-006),#279);
#183=CARTESIAN_POINT('',(-12.3999999999999,1.07605417141124E-014,5.99999999999997));
#184=CURVE_STYLE('',#280,POSITIVE_LENGTH_MEASURE(1.0E-006),#281);
#185=LINE('',#282,#283);
#186=POINT_STYLE(' ',#284,POSITIVE_LENGTH_MEASURE(1.0E-006),#285);
#187=CARTESIAN_POINT('',(-19.9999999999999,9.82984088520736E-015,5.99999999999997));
#188=CURVE_STYLE('',#286,POSITIVE_LENGTH_MEASURE(1.0E-006),#287);
#189=LINE('',#288,#289);
#190=CURVE_STYLE('',#290,POSITIVE_LENGTH_MEASURE(1.0E-006),#291);
#191=CIRCLE('',#292,8.25);
#192=SURFACE_STYLE_USAGE(.BOTH.,#293);
#193=FACE_BOUND('',#294,.T.);
#194=FACE_OUTER_BOUND('',#295,.T.);
#195=PLANE('',#296);
#196=POINT_STYLE(' ',#297,POSITIVE_LENGTH_MEASURE(1.0E-006),#298);
#197=CARTESIAN_POINT('',(8.25,1.46667645539783E-014,-2.8421709430404E-014));
#198=CURVE_STYLE('',#299,POSITIVE_LENGTH_MEASURE(1.0E-006),#300);
#199=CIRCLE('',#301,12.3999999999999);
#200=CURVE_STYLE('',#302,POSITIVE_LENGTH_MEASURE(1.0E-006),#303);
#201=CIRCLE('',#304,8.25);
#202=POINT_STYLE(' ',#305,POSITIVE_LENGTH_MEASURE(1.0E-006),#306);
#203=CARTESIAN_POINT('',(-19.9999999999999,9.46245897906065E-015,-2.8421709430404E-014));
#204=SURFACE_STYLE_USAGE(.BOTH.,#307);
#205=FACE_OUTER_BOUND('',#308,.T.);
#206=CYLINDRICAL_SURFACE('',#309,8.25);
#207=POINT_STYLE(' ',#310,POSITIVE_LENGTH_MEASURE(1.0E-006),#311);
#208=CARTESIAN_POINT('',(12.3999999999999,1.58678555223023E-014,5.99999999999997));
#209=POINT_STYLE(' ',#312,POSITIVE_LENGTH_MEASURE(1.0E-006),#313);
#210=CARTESIAN_POINT('',(19.9999999999999,1.80674438016428E-014,5.99999999999997));
#211=SURFACE_STYLE_USAGE(.BOTH.,#314);
#212=FACE_OUTER_BOUND('',#315,.T.);
#213=FACE_BOUND('',#316,.T.);
#214=PLANE('',#317);
#215=SURFACE_STYLE_USAGE(.BOTH.,#318);
#216=FACE_OUTER_BOUND('',#319,.T.);
#217=CYLINDRICAL_SURFACE('',#320,19.9999999999999);
#218=CURVE_STYLE('',#321,POSITIVE_LENGTH_MEASURE(1.0E-006),#322);
#219=LINE('',#323,#324);
#220=CURVE_STYLE('',#325,POSITIVE_LENGTH_MEASURE(1.0E-006),#326);
#221=LINE('',#327,#328);
#222=POINT_STYLE(' ',#329,POSITIVE_LENGTH_MEASURE(1.0E-006),#330);
#223=CARTESIAN_POINT('',(-8.25,1.11220452882823E-014,3.60399638286304));
#224=PRODUCT_CONTEXT('',#45,'mechanical');
#225=PRODUCT_DEFINITION_FORMATION_WITH_SPECIFIED_SOURCE(' ','NONE',#128,.NOT_KNOWN.);
#226=CARTESIAN_POINT('',(0.0,0.0,0.0));
#227=DIRECTION('',(0.0,0.0,1.0));
#228=DIRECTION('',(1.0,0.0,0.0));
#229= (NAMED_UNIT(#136)LENGTH_UNIT()SI_UNIT(.MILLI.,.METRE.));
#230=PRE_DEFINED_MARKER('');
#231=COLOUR_RGB('',0.509803950786591,0.509803950786591,0.588235318660736);
#232=DRAUGHTING_PRE_DEFINED_CURVE_FONT('continuous');
#233=COLOUR_RGB('',0.509803950786591,0.509803950786591,0.588235318660736);
#234=AXIS2_PLACEMENT_3D('',#332,#333,#334);
#235=DRAUGHTING_PRE_DEFINED_CURVE_FONT('continuous');
#236=COLOUR_RGB('',0.509803950786591,0.509803950786591,0.588235318660736);
#237=AXIS2_PLACEMENT_3D('',#335,#336,#337);
#238=SURFACE_SIDE_STYLE('',(#338));
#239=DRAUGHTING_PRE_DEFINED_CURVE_FONT('continuous');
#240=COLOUR_RGB('',0.509803950786591,0.509803950786591,0.588235318660736);
#241=AXIS2_PLACEMENT_3D('',#339,#340,#341);
#242=DRAUGHTING_PRE_DEFINED_CURVE_FONT('continuous');
#243=COLOUR_RGB('',0.509803950786591,0.509803950786591,0.588235318660736);
#244=CARTESIAN_POINT('',(-8.25,9.89134263172595E-015,1.80199819143151));
#245=VECTOR('',#342,1.0);
#246=PRE_DEFINED_MARKER('');
#247=COLOUR_RGB('',0.509803950786591,0.509803950786591,0.588235318660736);
#248=DRAUGHTING_PRE_DEFINED_CURVE_FONT('continuous');
#249=COLOUR_RGB('',0.509803950786591,0.509803950786591,0.588235318660736);
#250=CARTESIAN_POINT('',(-19.9999999999999,6.49066338406145E-015,2.99999999999997));
#251=VECTOR('',#343,1.0);
#252=DRAUGHTING_PRE_DEFINED_CURVE_FONT('continuous');
#253=COLOUR_RGB('',0.509803950786591,0.509803950786591,0.588235318660736);
#254=AXIS2_PLACEMENT_3D('',#344,#345,#346);
#255=SURFACE_SIDE_STYLE('',(#347));
#256=EDGE_LOOP('',(#348,#349,#350,#351));
#257=AXIS2_PLACEMENT_3D('',#352,#353,#354);
#258=DRAUGHTING_PRE_DEFINED_CURVE_FONT('continuous');
#259=COLOUR_RGB('',0.509803950786591,0.509803950786591,0.588235318660736);
#260=AXIS2_PLACEMENT_3D('',#355,#356,#357);
#261=SURFACE_SIDE_STYLE('',(#358));
#262=EDGE_LOOP('',(#359,#360,#361,#362));
#263=AXIS2_PLACEMENT_3D('',#363,#364,#365);
#264=SURFACE_SIDE_STYLE('',(#366));
#265=EDGE_LOOP('',(#367,#368,#369,#370));
#266=AXIS2_PLACEMENT_3D('',#371,#372,#373);
#267=PRE_DEFINED_MARKER('');
#268=COLOUR_RGB('',0.509803950786591,0.509803950786591,0.588235318660736);
#269=SURFACE_SIDE_STYLE('',(#374));
#270=EDGE_LOOP('',(#375,#376,#377,#378));
#271=AXIS2_PLACEMENT_3D('',#379,#380,#381);
#272=DRAUGHTING_PRE_DEFINED_CURVE_FONT('continuous');
#273=COLOUR_RGB('',0.509803950786591,0.509803950786591,0.588235318660736);
#274=AXIS2_PLACEMENT_3D('',#382,#383,#384);
#275=DRAUGHTING_PRE_DEFINED_CURVE_FONT('continuous');
#276=COLOUR_RGB('',0.509803950786591,0.509803950786591,0.588235318660736);
#277=AXIS2_PLACEMENT_3D('',#385,#386,#387);
#278=PRE_DEFINED_MARKER('');
#279=COLOUR_RGB('',0.509803950786591,0.509803950786591,0.588235318660736);
#280=DRAUGHTING_PRE_DEFINED_CURVE_FONT('continuous');
#281=COLOUR_RGB('',0.509803950786591,0.509803950786591,0.588235318660736);
#282=CARTESIAN_POINT('',(8.25,1.46667645539783E-014,1.80199819143151));
#283=VECTOR('',#388,1.0);
#284=PRE_DEFINED_MARKER('');
#285=COLOUR_RGB('',0.509803950786591,0.509803950786591,0.588235318660736);
#286=DRAUGHTING_PRE_DEFINED_CURVE_FONT('continuous');
#287=COLOUR_RGB('',0.509803950786591,0.509803950786591,0.588235318660736);
#288=CARTESIAN_POINT('',(10.325,1.52673100381403E-014,4.80199819143151));
#289=VECTOR('',#389,1.0);
#290=DRAUGHTING_PRE_DEFINED_CURVE_FONT('continuous');
#291=COLOUR_RGB('',0.509803950786591,0.509803950786591,0.588235318660736);
#292=AXIS2_PLACEMENT_3D('',#390,#391,#392);
#293=SURFACE_SIDE_STYLE('',(#393));
#294=EDGE_LOOP('',(#394,#395));
#295=EDGE_LOOP('',(#396,#397));
#296=AXIS2_PLACEMENT_3D('',#398,#399,#400);
#297=PRE_DEFINED_MARKER('');
#298=COLOUR_RGB('',0.509803950786591,0.509803950786591,0.588235318660736);
#299=DRAUGHTING_PRE_DEFINED_CURVE_FONT('continuous');
#300=COLOUR_RGB('',0.509803950786591,0.509803950786591,0.588235318660736);
#301=AXIS2_PLACEMENT_3D('',#401,#402,#403);
#302=DRAUGHTING_PRE_DEFINED_CURVE_FONT('continuous');
#303=COLOUR_RGB('',0.509803950786591,0.509803950786591,0.588235318660736);
#304=AXIS2_PLACEMENT_3D('',#404,#405,#406);
#305=PRE_DEFINED_MARKER('');
#306=COLOUR_RGB('',0.509803950786591,0.509803950786591,0.588235318660736);
#307=SURFACE_SIDE_STYLE('',(#407));
#308=EDGE_LOOP('',(#408,#409,#410,#411));
#309=AXIS2_PLACEMENT_3D('',#412,#413,#414);
#310=PRE_DEFINED_MARKER('');
#311=COLOUR_RGB('',0.509803950786591,0.509803950786591,0.588235318660736);
#312=PRE_DEFINED_MARKER('');
#313=COLOUR_RGB('',0.509803950786591,0.509803950786591,0.588235318660736);
#314=SURFACE_SIDE_STYLE('',(#415));
#315=EDGE_LOOP('',(#416,#417));
#316=EDGE_LOOP('',(#418,#419));
#317=AXIS2_PLACEMENT_3D('',#420,#421,#422);
#318=SURFACE_SIDE_STYLE('',(#423));
#319=EDGE_LOOP('',(#424,#425,#426,#427));
#320=AXIS2_PLACEMENT_3D('',#428,#429,#430);
#321=DRAUGHTING_PRE_DEFINED_CURVE_FONT('continuous');
#322=COLOUR_RGB('',0.509803950786591,0.509803950786591,0.588235318660736);
#323=CARTESIAN_POINT('',(19.9999999999999,1.80674438016428E-014,2.99999999999997));
#324=VECTOR('',#431,1.0);
#325=DRAUGHTING_PRE_DEFINED_CURVE_FONT('continuous');
#326=COLOUR_RGB('',0.509803950786591,0.509803950786591,0.588235318660736);
#327=CARTESIAN_POINT('',(-10.325,9.29079714756393E-015,4.80199819143151));
#328=VECTOR('',#432,1.0);
#329=PRE_DEFINED_MARKER('');
#330=COLOUR_RGB('',0.509803950786591,0.509803950786591,0.588235318660736);
#332=CARTESIAN_POINT('',(0.0,1.22790535928521E-014,-2.8421709430404E-014));
#333=DIRECTION('',(-0.0,0.0,-1.0));
#334=DIRECTION('',(-1.0,-1.66958875057296E-016,0.0));
#335=CARTESIAN_POINT('',(0.0,1.22790535928521E-014,5.99999999999997));
#336=DIRECTION('',(-0.0,0.0,-1.0));
#337=DIRECTION('',(-1.0,-1.66958875057296E-016,0.0));
#338=SURFACE_STYLE_FILL_AREA(#433);
#339=CARTESIAN_POINT('',(0.0,1.22790535928521E-014,-2.8421709430404E-014));
#340=DIRECTION('',(-0.0,0.0,-1.0));
#341=DIRECTION('',(-1.0,-1.66958875057296E-016,0.0));
#342=DIRECTION('',(0.0,0.0,-1.0));
#343=DIRECTION('',(0.0,0.0,-1.0));
#344=CARTESIAN_POINT('',(0.0,1.22790535928521E-014,-2.8421709430404E-014));
#345=DIRECTION('',(-0.0,0.0,-1.0));
#346=DIRECTION('',(-1.0,-1.66958875057296E-016,0.0));
#347=SURFACE_STYLE_FILL_AREA(#434);
#348=ORIENTED_EDGE('',*,*,#125,.F.);
#349=ORIENTED_EDGE('',*,*,#107,.F.);
#350=ORIENTED_EDGE('',*,*,#99,.F.);
#351=ORIENTED_EDGE('',*,*,#109,.T.);
#352=CARTESIAN_POINT('',(0.0,1.22790535928521E-014,4.80199819143151));
#353=DIRECTION('',(0.0,-0.0,1.0));
#354=DIRECTION('',(-1.0,-1.66958875057296E-016,0.0));
#355=CARTESIAN_POINT('',(0.0,1.22790535928521E-014,5.99999999999997));
#356=DIRECTION('',(-0.0,0.0,-1.0));
#357=DIRECTION('',(-1.0,-1.66958875057296E-016,0.0));
#358=SURFACE_STYLE_FILL_AREA(#435);
#359=ORIENTED_EDGE('',*,*,#73,.F.);
#360=ORIENTED_EDGE('',*,*,#63,.T.);
#361=ORIENTED_EDGE('',*,*,#123,.F.);
#362=ORIENTED_EDGE('',*,*,#91,.F.);
#363=CARTESIAN_POINT('',(0.0,1.22790535928521E-014,2.99999999999997));
#364=DIRECTION('',(0.0,-0.0,1.0));
#365=DIRECTION('',(-1.0,-1.66958875057296E-016,0.0));
#366=SURFACE_STYLE_FILL_AREA(#436);
#367=ORIENTED_EDGE('',*,*,#69,.T.);
#368=ORIENTED_EDGE('',*,*,#61,.T.);
#369=ORIENTED_EDGE('',*,*,#95,.T.);
#370=ORIENTED_EDGE('',*,*,#101,.F.);
#371=CARTESIAN_POINT('',(0.0,1.22790535928521E-014,1.80199819143151));
#372=DIRECTION('',(0.0,-0.0,1.0));
#373=DIRECTION('',(-1.0,-1.66958875057296E-016,0.0));
#374=SURFACE_STYLE_FILL_AREA(#437);
#375=ORIENTED_EDGE('',*,*,#125,.T.);
#376=ORIENTED_EDGE('',*,*,#101,.T.);
#377=ORIENTED_EDGE('',*,*,#99,.T.);
#378=ORIENTED_EDGE('',*,*,#89,.F.);
#379=CARTESIAN_POINT('',(0.0,1.22790535928521E-014,4.80199819143151));
#380=DIRECTION('',(0.0,-0.0,1.0));
#381=DIRECTION('',(-1.0,-1.66958875057296E-016,0.0));
#382=CARTESIAN_POINT('',(0.0,1.22790535928521E-014,5.99999999999997));
#383=DIRECTION('',(-0.0,0.0,-1.0));
#384=DIRECTION('',(-1.0,-1.66958875057296E-016,0.0));
#385=CARTESIAN_POINT('',(0.0,1.22790535928521E-014,-2.8421709430404E-014));
#386=DIRECTION('',(-0.0,0.0,-1.0));
#387=DIRECTION('',(-1.0,-1.66958875057296E-016,0.0));
#388=DIRECTION('',(0.0,0.0,1.0));
#389=DIRECTION('',(0.866025403784436,2.50644648391491E-016,0.500000000000004));
#390=CARTESIAN_POINT('',(0.0,1.22790535928521E-014,3.60399638286304));
#391=DIRECTION('',(-0.0,0.0,-1.0));
#392=DIRECTION('',(-1.0,-1.66958875057296E-016,0.0));
#393=SURFACE_STYLE_FILL_AREA(#438);
#394=ORIENTED_EDGE('',*,*,#61,.F.);
#395=ORIENTED_EDGE('',*,*,#75,.F.);
#396=ORIENTED_EDGE('',*,*,#91,.T.);
#397=ORIENTED_EDGE('',*,*,#67,.T.);
#398=CARTESIAN_POINT('',(-14.125,1.01819152119313E-014,-2.8421709430404E-014));
#399=DIRECTION('',(0.0,0.0,-1.0));
#400=DIRECTION('',(1.0,1.22460635382238E-016,0.0));
#401=CARTESIAN_POINT('',(0.0,1.22790535928521E-014,5.99999999999997));
#402=DIRECTION('',(-0.0,0.0,-1.0));
#403=DIRECTION('',(-1.0,-1.66958875057296E-016,0.0));
#404=CARTESIAN_POINT('',(0.0,1.22790535928521E-014,3.60399638286304));
#405=DIRECTION('',(-0.0,0.0,-1.0));
#406=DIRECTION('',(-1.0,-1.66958875057296E-016,0.0));
#407=SURFACE_STYLE_FILL_AREA(#439);
#408=ORIENTED_EDGE('',*,*,#69,.F.);
#409=ORIENTED_EDGE('',*,*,#109,.F.);
#410=ORIENTED_EDGE('',*,*,#95,.F.);
#411=ORIENTED_EDGE('',*,*,#75,.T.);
#412=CARTESIAN_POINT('',(0.0,1.22790535928521E-014,1.80199819143151));
#413=DIRECTION('',(0.0,-0.0,1.0));
#414=DIRECTION('',(-1.0,-1.66958875057296E-016,0.0));
#415=SURFACE_STYLE_FILL_AREA(#440);
#416=ORIENTED_EDGE('',*,*,#63,.F.);
#417=ORIENTED_EDGE('',*,*,#79,.F.);
#418=ORIENTED_EDGE('',*,*,#89,.T.);
#419=ORIENTED_EDGE('',*,*,#107,.T.);
#420=CARTESIAN_POINT('',(-16.1999999999999,1.02951912996599E-014,5.99999999999997));
#421=DIRECTION('',(0.0,0.0,1.0));
#422=DIRECTION('',(-1.0,-1.22460635382238E-016,0.0));
#423=SURFACE_STYLE_FILL_AREA(#441);
#424=ORIENTED_EDGE('',*,*,#73,.T.);
#425=ORIENTED_EDGE('',*,*,#67,.F.);
#426=ORIENTED_EDGE('',*,*,#123,.T.);
#427=ORIENTED_EDGE('',*,*,#79,.T.);
#428=CARTESIAN_POINT('',(0.0,1.22790535928521E-014,2.99999999999997));
#429=DIRECTION('',(0.0,-0.0,1.0));
#430=DIRECTION('',(-1.0,-1.66958875057296E-016,0.0));
#431=DIRECTION('',(-0.0,-0.0,1.0));
#432=DIRECTION('',(0.866025403784436,2.50644648391491E-016,-0.500000000000004));
#433=FILL_AREA_STYLE('',(#442));
#434=FILL_AREA_STYLE('',(#443));
#435=FILL_AREA_STYLE('',(#444));
#436=FILL_AREA_STYLE('',(#445));
#437=FILL_AREA_STYLE('',(#446));
#438=FILL_AREA_STYLE('',(#447));
#439=FILL_AREA_STYLE('',(#448));
#440=FILL_AREA_STYLE('',(#449));
#441=FILL_AREA_STYLE('',(#450));
#442=FILL_AREA_STYLE_COLOUR('',#451);
#443=FILL_AREA_STYLE_COLOUR('',#452);
#444=FILL_AREA_STYLE_COLOUR('',#453);
#445=FILL_AREA_STYLE_COLOUR('',#454);
#446=FILL_AREA_STYLE_COLOUR('',#455);
#447=FILL_AREA_STYLE_COLOUR('',#456);
#448=FILL_AREA_STYLE_COLOUR('',#457);
#449=FILL_AREA_STYLE_COLOUR('',#458);
#450=FILL_AREA_STYLE_COLOUR('',#459);
#451=COLOUR_RGB('',0.509803950786591,0.509803950786591,0.588235318660736);
#452=COLOUR_RGB('',0.509803950786591,0.509803950786591,0.588235318660736);
#453=COLOUR_RGB('',0.509803950786591,0.509803950786591,0.588235318660736);
#454=COLOUR_RGB('',0.509803950786591,0.509803950786591,0.588235318660736);
#455=COLOUR_RGB('',0.509803950786591,0.509803950786591,0.588235318660736);
#456=COLOUR_RGB('',0.509803950786591,0.509803950786591,0.588235318660736);
#457=COLOUR_RGB('',0.509803950786591,0.509803950786591,0.588235318660736);
#458=COLOUR_RGB('',0.509803950786591,0.509803950786591,0.588235318660736);
#459=COLOUR_RGB('',0.509803950786591,0.509803950786591,0.588235318660736);
ENDSEC;
END-ISO-10303-21;
