ISO-10303-21;
HEADER;
FILE_DESCRIPTION(('STEP AP214'),'1');
FILE_NAME(' ','  ',('TraceParts'),('TraceParts S.A.'),'XStep 1.0',' ',' ');
FILE_SCHEMA(('automotive_design'));
ENDSEC;
DATA;
#1=MECHANICAL_DESIGN_GEOMETRIC_PRESENTATION_REPRESENTATION(' ',(#10,#11,#12,#13,#14,#15,#16,#17,#18,#19,#20,#21,#22,#23,#24,#25,#26,#27,#28,#29,#30,#31,#32,#33,#34,#35,#36,#37,#38,#39,#40,#41,#42,#43,#44),#6);
#2=PRODUCT_DEFINITION_CONTEXT('',#45,'design');
#3=APPLICATION_PROTOCOL_DEFINITION('INTERNATIONAL STANDARD','automotive_design',1994,#45);
#4=PRODUCT_CATEGORY_RELATIONSHIP('NONE','NONE',#46,#47);
#5=SHAPE_DEFINITION_REPRESENTATION(#48,#49);
#6= (GEOMETRIC_REPRESENTATION_CONTEXT(3)GLOBAL_UNCERTAINTY_ASSIGNED_CONTEXT((#52))GLOBAL_UNIT_ASSIGNED_CONTEXT((#54,#55,#56))REPRESENTATION_CONTEXT('NONE','WORKSPACE'));
#10=STYLED_ITEM('',(#58),#59);
#11=STYLED_ITEM('',(#60),#61);
#12=STYLED_ITEM('',(#62),#63);
#13=STYLED_ITEM('',(#64),#65);
#14=STYLED_ITEM('',(#66),#67);
#15=STYLED_ITEM('',(#68),#69);
#16=STYLED_ITEM('',(#70),#71);
#17=STYLED_ITEM('',(#72),#73);
#18=STYLED_ITEM('',(#74),#75);
#19=STYLED_ITEM('',(#76),#77);
#20=STYLED_ITEM('',(#78),#79);
#21=STYLED_ITEM('',(#80),#81);
#22=STYLED_ITEM('',(#82),#83);
#23=STYLED_ITEM('',(#84),#85);
#24=STYLED_ITEM('',(#86),#87);
#25=STYLED_ITEM('',(#88),#89);
#26=STYLED_ITEM('',(#90),#91);
#27=STYLED_ITEM('',(#92),#93);
#28=STYLED_ITEM('',(#94),#95);
#29=STYLED_ITEM('',(#96),#97);
#30=STYLED_ITEM('',(#98),#99);
#31=STYLED_ITEM('',(#100),#101);
#32=STYLED_ITEM('',(#102),#103);
#33=STYLED_ITEM('',(#104),#105);
#34=STYLED_ITEM('',(#106),#107);
#35=STYLED_ITEM('',(#108),#109);
#36=STYLED_ITEM('',(#110),#111);
#37=STYLED_ITEM('',(#112),#113);
#38=STYLED_ITEM('',(#114),#115);
#39=STYLED_ITEM('',(#116),#117);
#40=STYLED_ITEM('',(#118),#119);
#41=STYLED_ITEM('',(#120),#121);
#42=STYLED_ITEM('',(#122),#123);
#43=STYLED_ITEM('',(#124),#125);
#44=STYLED_ITEM('',(#126),#127);
#45=APPLICATION_CONTEXT(' ');
#46=PRODUCT_CATEGORY('part','NONE');
#47=PRODUCT_RELATED_PRODUCT_CATEGORY('detail',' ',(#128));
#48=PRODUCT_DEFINITION_SHAPE('NONE','NONE',#129);
#49=ADVANCED_BREP_SHAPE_REPRESENTATION('1',(#63,#130),#6);
#52=UNCERTAINTY_MEASURE_WITH_UNIT(LENGTH_MEASURE(1.0E-006),#54,'','');
#54= (CONVERSION_BASED_UNIT('MILLIMETRE',#133)LENGTH_UNIT()NAMED_UNIT(#136));
#55= (NAMED_UNIT(#138)PLANE_ANGLE_UNIT()SI_UNIT($,.RADIAN.));
#56= (NAMED_UNIT(#138)SOLID_ANGLE_UNIT()SI_UNIT($,.STERADIAN.));
#58=PRESENTATION_STYLE_ASSIGNMENT((#144));
#59=VERTEX_POINT('',#145);
#60=PRESENTATION_STYLE_ASSIGNMENT((#146));
#61=EDGE_CURVE('',#67,#59,#147,.T.);
#62=PRESENTATION_STYLE_ASSIGNMENT((#148));
#63=MANIFOLD_SOLID_BREP('1',#149);
#64=PRESENTATION_STYLE_ASSIGNMENT((#150));
#65=EDGE_CURVE('',#69,#103,#151,.T.);
#66=PRESENTATION_STYLE_ASSIGNMENT((#152));
#67=VERTEX_POINT('',#153);
#68=PRESENTATION_STYLE_ASSIGNMENT((#154));
#69=VERTEX_POINT('',#155);
#70=PRESENTATION_STYLE_ASSIGNMENT((#156));
#71=EDGE_CURVE('',#121,#81,#157,.T.);
#72=PRESENTATION_STYLE_ASSIGNMENT((#158));
#73=EDGE_CURVE('',#103,#69,#159,.T.);
#74=PRESENTATION_STYLE_ASSIGNMENT((#160));
#75=EDGE_CURVE('',#125,#105,#161,.T.);
#76=PRESENTATION_STYLE_ASSIGNMENT((#162));
#77=ADVANCED_FACE('',(#163),#164,.F.);
#78=PRESENTATION_STYLE_ASSIGNMENT((#165));
#79=EDGE_CURVE('',#59,#109,#166,.T.);
#80=PRESENTATION_STYLE_ASSIGNMENT((#167));
#81=VERTEX_POINT('',#168);
#82=PRESENTATION_STYLE_ASSIGNMENT((#169));
#83=ADVANCED_FACE('',(#170,#171),#172,.T.);
#84=PRESENTATION_STYLE_ASSIGNMENT((#173));
#85=EDGE_CURVE('',#97,#109,#174,.T.);
#86=PRESENTATION_STYLE_ASSIGNMENT((#175));
#87=EDGE_CURVE('',#109,#105,#176,.T.);
#88=PRESENTATION_STYLE_ASSIGNMENT((#177));
#89=EDGE_CURVE('',#121,#103,#178,.T.);
#90=PRESENTATION_STYLE_ASSIGNMENT((#179));
#91=EDGE_CURVE('',#81,#121,#180,.T.);
#92=PRESENTATION_STYLE_ASSIGNMENT((#181));
#93=EDGE_CURVE('',#105,#125,#182,.T.);
#94=PRESENTATION_STYLE_ASSIGNMENT((#183));
#95=EDGE_CURVE('',#97,#67,#184,.T.);
#96=PRESENTATION_STYLE_ASSIGNMENT((#185));
#97=VERTEX_POINT('',#186);
#98=PRESENTATION_STYLE_ASSIGNMENT((#187));
#99=ADVANCED_FACE('',(#188),#189,.T.);
#100=PRESENTATION_STYLE_ASSIGNMENT((#190));
#101=ADVANCED_FACE('',(#191,#192),#193,.T.);
#102=PRESENTATION_STYLE_ASSIGNMENT((#194));
#103=VERTEX_POINT('',#195);
#104=PRESENTATION_STYLE_ASSIGNMENT((#196));
#105=VERTEX_POINT('',#197);
#106=PRESENTATION_STYLE_ASSIGNMENT((#198));
#107=ADVANCED_FACE('',(#199),#200,.F.);
#108=PRESENTATION_STYLE_ASSIGNMENT((#201));
#109=VERTEX_POINT('',#202);
#110=PRESENTATION_STYLE_ASSIGNMENT((#203));
#111=ADVANCED_FACE('',(#204),#205,.F.);
#112=PRESENTATION_STYLE_ASSIGNMENT((#206));
#113=EDGE_CURVE('',#59,#67,#207,.T.);
#114=PRESENTATION_STYLE_ASSIGNMENT((#208));
#115=EDGE_CURVE('',#125,#97,#209,.T.);
#116=PRESENTATION_STYLE_ASSIGNMENT((#210));
#117=EDGE_CURVE('',#69,#81,#211,.T.);
#118=PRESENTATION_STYLE_ASSIGNMENT((#212));
#119=EDGE_CURVE('',#109,#97,#213,.T.);
#120=PRESENTATION_STYLE_ASSIGNMENT((#214));
#121=VERTEX_POINT('',#215);
#122=PRESENTATION_STYLE_ASSIGNMENT((#216));
#123=ADVANCED_FACE('',(#217),#218,.F.);
#124=PRESENTATION_STYLE_ASSIGNMENT((#219));
#125=VERTEX_POINT('',#220);
#126=PRESENTATION_STYLE_ASSIGNMENT((#221));
#127=ADVANCED_FACE('',(#222),#223,.T.);
#128=PRODUCT('1','1','PART-1-DESC',(#224));
#129=PRODUCT_DEFINITION('NONE','NONE',#225,#2);
#130=AXIS2_PLACEMENT_3D('',#226,#227,#228);
#133=LENGTH_MEASURE_WITH_UNIT(LENGTH_MEASURE(1.0),#229);
#136=DIMENSIONAL_EXPONENTS(1.0,0.0,0.0,0.0,0.0,0.0,0.0);
#138=DIMENSIONAL_EXPONENTS(0.0,0.0,0.0,0.0,0.0,0.0,0.0);
#144=POINT_STYLE(' ',#230,POSITIVE_LENGTH_MEASURE(1.0E-006),#231);
#145=CARTESIAN_POINT('',(4.80000000000004,1.25072701749081E-014,-2.8421709430404E-014));
#146=CURVE_STYLE('',#232,POSITIVE_LENGTH_MEASURE(1.0E-006),#233);
#147=CIRCLE('',#234,4.80000000000001);
#148=SURFACE_STYLE_USAGE(.BOTH.,#235);
#149=CLOSED_SHELL('',(#111,#99,#77,#107,#101,#127,#83,#123));
#150=CURVE_STYLE('',#236,POSITIVE_LENGTH_MEASURE(1.0E-006),#237);
#151=CIRCLE('',#238,8.5);
#152=POINT_STYLE(' ',#239,POSITIVE_LENGTH_MEASURE(1.0E-006),#240);
#153=CARTESIAN_POINT('',(-4.79999999999998,1.03153818668194E-014,-2.8421709430404E-014));
#154=POINT_STYLE(' ',#241,POSITIVE_LENGTH_MEASURE(1.0E-006),#242);
#155=CARTESIAN_POINT('',(-8.49999999999997,1.00765836278241E-014,3.49999999999997));
#156=CURVE_STYLE('',#243,POSITIVE_LENGTH_MEASURE(1.0E-006),#244);
#157=CIRCLE('',#245,8.5);
#158=CURVE_STYLE('',#246,POSITIVE_LENGTH_MEASURE(1.0E-006),#247);
#159=CIRCLE('',#248,8.5);
#160=CURVE_STYLE('',#249,POSITIVE_LENGTH_MEASURE(1.0E-006),#250);
#161=CIRCLE('',#251,7.25);
#162=SURFACE_STYLE_USAGE(.BOTH.,#252);
#163=FACE_OUTER_BOUND('',#253,.T.);
#164=CONICAL_SURFACE('',#254,6.02500000000001,1.04719755119659);
#165=CURVE_STYLE('',#255,POSITIVE_LENGTH_MEASURE(1.0E-006),#256);
#166=LINE('',#257,#258);
#167=POINT_STYLE(' ',#259,POSITIVE_LENGTH_MEASURE(1.0E-006),#260);
#168=CARTESIAN_POINT('',(-8.49999999999997,9.86227751590515E-015,-2.8421709430404E-014));
#169=SURFACE_STYLE_USAGE(.BOTH.,#261);
#170=FACE_BOUND('',#262,.T.);
#171=FACE_OUTER_BOUND('',#263,.T.);
#172=PLANE('',#264);
#173=CURVE_STYLE('',#265,POSITIVE_LENGTH_MEASURE(1.0E-006),#266);
#174=CIRCLE('',#267,4.80000000000001);
#175=CURVE_STYLE('',#268,POSITIVE_LENGTH_MEASURE(1.0E-006),#269);
#176=LINE('',#270,#271);
#177=CURVE_STYLE('',#272,POSITIVE_LENGTH_MEASURE(1.0E-006),#273);
#178=LINE('',#274,#275);
#179=CURVE_STYLE('',#276,POSITIVE_LENGTH_MEASURE(1.0E-006),#277);
#180=CIRCLE('',#278,8.5);
#181=CURVE_STYLE('',#279,POSITIVE_LENGTH_MEASURE(1.0E-006),#280);
#182=CIRCLE('',#281,7.25);
#183=CURVE_STYLE('',#282,POSITIVE_LENGTH_MEASURE(1.0E-006),#283);
#184=LINE('',#284,#285);
#185=POINT_STYLE(' ',#286,POSITIVE_LENGTH_MEASURE(1.0E-006),#287);
#186=CARTESIAN_POINT('',(-4.79999999999998,1.04430771947546E-014,2.08549184048536));
#187=SURFACE_STYLE_USAGE(.BOTH.,#288);
#188=FACE_OUTER_BOUND('',#289,.T.);
#189=CYLINDRICAL_SURFACE('',#290,8.5);
#190=SURFACE_STYLE_USAGE(.BOTH.,#291);
#191=FACE_OUTER_BOUND('',#292,.T.);
#192=FACE_BOUND('',#293,.T.);
#193=PLANE('',#294);
#194=POINT_STYLE(' ',#295,POSITIVE_LENGTH_MEASURE(1.0E-006),#296);
#195=CARTESIAN_POINT('',(8.50000000000003,1.3578552100208E-014,3.49999999999997));
#196=POINT_STYLE(' ',#297,POSITIVE_LENGTH_MEASURE(1.0E-006),#298);
#197=CARTESIAN_POINT('',(7.25000000000003,1.321663253085E-014,3.49999999999997));
#198=SURFACE_STYLE_USAGE(.BOTH.,#299);
#199=FACE_OUTER_BOUND('',#300,.T.);
#200=CONICAL_SURFACE('',#301,6.02500000000001,1.04719755119659);
#201=POINT_STYLE(' ',#302,POSITIVE_LENGTH_MEASURE(1.0E-006),#303);
#202=CARTESIAN_POINT('',(4.80000000000004,1.25072701749081E-014,2.08549184048536));
#203=SURFACE_STYLE_USAGE(.BOTH.,#304);
#204=FACE_OUTER_BOUND('',#305,.T.);
#205=CYLINDRICAL_SURFACE('',#306,4.80000000000001);
#206=CURVE_STYLE('',#307,POSITIVE_LENGTH_MEASURE(1.0E-006),#308);
#207=CIRCLE('',#309,4.80000000000001);
#208=CURVE_STYLE('',#310,POSITIVE_LENGTH_MEASURE(1.0E-006),#311);
#209=LINE('',#312,#313);
#210=CURVE_STYLE('',#314,POSITIVE_LENGTH_MEASURE(1.0E-006),#315);
#211=LINE('',#316,#317);
#212=CURVE_STYLE('',#318,POSITIVE_LENGTH_MEASURE(1.0E-006),#319);
#213=CIRCLE('',#320,4.80000000000001);
#214=POINT_STYLE(' ',#321,POSITIVE_LENGTH_MEASURE(1.0E-006),#322);
#215=CARTESIAN_POINT('',(8.50000000000003,1.3578552100208E-014,-2.8421709430404E-014));
#216=SURFACE_STYLE_USAGE(.BOTH.,#323);
#217=FACE_OUTER_BOUND('',#324,.T.);
#218=CYLINDRICAL_SURFACE('',#325,4.80000000000001);
#219=POINT_STYLE(' ',#326,POSITIVE_LENGTH_MEASURE(1.0E-006),#327);
#220=CARTESIAN_POINT('',(-7.24999999999997,1.02296594220519E-014,3.49999999999997));
#221=SURFACE_STYLE_USAGE(.BOTH.,#328);
#222=FACE_OUTER_BOUND('',#329,.T.);
#223=CYLINDRICAL_SURFACE('',#330,8.5);
#224=PRODUCT_CONTEXT('',#45,'mechanical');
#225=PRODUCT_DEFINITION_FORMATION_WITH_SPECIFIED_SOURCE(' ','NONE',#128,.NOT_KNOWN.);
#226=CARTESIAN_POINT('',(0.0,0.0,0.0));
#227=DIRECTION('',(0.0,0.0,1.0));
#228=DIRECTION('',(1.0,0.0,0.0));
#229= (NAMED_UNIT(#136)LENGTH_UNIT()SI_UNIT(.MILLI.,.METRE.));
#230=PRE_DEFINED_MARKER('');
#231=COLOUR_RGB('',0.509803950786591,0.509803950786591,0.588235318660736);
#232=DRAUGHTING_PRE_DEFINED_CURVE_FONT('continuous');
#233=COLOUR_RGB('',0.509803950786591,0.509803950786591,0.588235318660736);
#234=AXIS2_PLACEMENT_3D('',#332,#333,#334);
#235=SURFACE_SIDE_STYLE('',(#335));
#236=DRAUGHTING_PRE_DEFINED_CURVE_FONT('continuous');
#237=COLOUR_RGB('',0.509803950786591,0.509803950786591,0.588235318660736);
#238=AXIS2_PLACEMENT_3D('',#336,#337,#338);
#239=PRE_DEFINED_MARKER('');
#240=COLOUR_RGB('',0.509803950786591,0.509803950786591,0.588235318660736);
#241=PRE_DEFINED_MARKER('');
#242=COLOUR_RGB('',0.509803950786591,0.509803950786591,0.588235318660736);
#243=DRAUGHTING_PRE_DEFINED_CURVE_FONT('continuous');
#244=COLOUR_RGB('',0.509803950786591,0.509803950786591,0.588235318660736);
#245=AXIS2_PLACEMENT_3D('',#339,#340,#341);
#246=DRAUGHTING_PRE_DEFINED_CURVE_FONT('continuous');
#247=COLOUR_RGB('',0.509803950786591,0.509803950786591,0.588235318660736);
#248=AXIS2_PLACEMENT_3D('',#342,#343,#344);
#249=DRAUGHTING_PRE_DEFINED_CURVE_FONT('continuous');
#250=COLOUR_RGB('',0.509803950786591,0.509803950786591,0.588235318660736);
#251=AXIS2_PLACEMENT_3D('',#345,#346,#347);
#252=SURFACE_SIDE_STYLE('',(#348));
#253=EDGE_LOOP('',(#349,#350,#351,#352));
#254=AXIS2_PLACEMENT_3D('',#353,#354,#355);
#255=DRAUGHTING_PRE_DEFINED_CURVE_FONT('continuous');
#256=COLOUR_RGB('',0.509803950786591,0.509803950786591,0.588235318660736);
#257=CARTESIAN_POINT('',(4.80000000000004,1.25072701749081E-014,1.04274592024267));
#258=VECTOR('',#356,1.0);
#259=PRE_DEFINED_MARKER('');
#260=COLOUR_RGB('',0.509803950786591,0.509803950786591,0.588235318660736);
#261=SURFACE_SIDE_STYLE('',(#357));
#262=EDGE_LOOP('',(#358,#359));
#263=EDGE_LOOP('',(#360,#361));
#264=AXIS2_PLACEMENT_3D('',#362,#363,#364);
#265=DRAUGHTING_PRE_DEFINED_CURVE_FONT('continuous');
#266=COLOUR_RGB('',0.509803950786591,0.509803950786591,0.588235318660736);
#267=AXIS2_PLACEMENT_3D('',#365,#366,#367);
#268=DRAUGHTING_PRE_DEFINED_CURVE_FONT('continuous');
#269=COLOUR_RGB('',0.509803950786591,0.509803950786591,0.588235318660736);
#270=CARTESIAN_POINT('',(6.02500000000003,1.2861951352879E-014,2.79274592024267));
#271=VECTOR('',#368,1.0);
#272=DRAUGHTING_PRE_DEFINED_CURVE_FONT('continuous');
#273=COLOUR_RGB('',0.509803950786591,0.509803950786591,0.588235318660736);
#274=CARTESIAN_POINT('',(8.50000000000003,1.3578552100208E-014,1.74999999999997));
#275=VECTOR('',#369,1.0);
#276=DRAUGHTING_PRE_DEFINED_CURVE_FONT('continuous');
#277=COLOUR_RGB('',0.509803950786591,0.509803950786591,0.588235318660736);
#278=AXIS2_PLACEMENT_3D('',#370,#371,#372);
#279=DRAUGHTING_PRE_DEFINED_CURVE_FONT('continuous');
#280=COLOUR_RGB('',0.509803950786591,0.509803950786591,0.588235318660736);
#281=AXIS2_PLACEMENT_3D('',#373,#374,#375);
#282=DRAUGHTING_PRE_DEFINED_CURVE_FONT('continuous');
#283=COLOUR_RGB('',0.509803950786591,0.509803950786591,0.588235318660736);
#284=CARTESIAN_POINT('',(-4.79999999999998,9.72772788223804E-015,1.04274592024267));
#285=VECTOR('',#376,1.0);
#286=PRE_DEFINED_MARKER('');
#287=COLOUR_RGB('',0.509803950786591,0.509803950786591,0.588235318660736);
#288=SURFACE_SIDE_STYLE('',(#377));
#289=EDGE_LOOP('',(#378,#379,#380,#381));
#290=AXIS2_PLACEMENT_3D('',#382,#383,#384);
#291=SURFACE_SIDE_STYLE('',(#385));
#292=EDGE_LOOP('',(#386,#387));
#293=EDGE_LOOP('',(#388,#389));
#294=AXIS2_PLACEMENT_3D('',#390,#391,#392);
#295=PRE_DEFINED_MARKER('');
#296=COLOUR_RGB('',0.509803950786591,0.509803950786591,0.588235318660736);
#297=PRE_DEFINED_MARKER('');
#298=COLOUR_RGB('',0.509803950786591,0.509803950786591,0.588235318660736);
#299=SURFACE_SIDE_STYLE('',(#393));
#300=EDGE_LOOP('',(#394,#395,#396,#397));
#301=AXIS2_PLACEMENT_3D('',#398,#399,#400);
#302=PRE_DEFINED_MARKER('');
#303=COLOUR_RGB('',0.509803950786591,0.509803950786591,0.588235318660736);
#304=SURFACE_SIDE_STYLE('',(#401));
#305=EDGE_LOOP('',(#402,#403,#404,#405));
#306=AXIS2_PLACEMENT_3D('',#406,#407,#408);
#307=DRAUGHTING_PRE_DEFINED_CURVE_FONT('continuous');
#308=COLOUR_RGB('',0.509803950786591,0.509803950786591,0.588235318660736);
#309=AXIS2_PLACEMENT_3D('',#409,#410,#411);
#310=DRAUGHTING_PRE_DEFINED_CURVE_FONT('continuous');
#311=COLOUR_RGB('',0.509803950786591,0.509803950786591,0.588235318660736);
#312=CARTESIAN_POINT('',(-6.02499999999998,9.37304670426712E-015,2.79274592024267));
#313=VECTOR('',#412,1.0);
#314=DRAUGHTING_PRE_DEFINED_CURVE_FONT('continuous');
#315=COLOUR_RGB('',0.509803950786591,0.509803950786591,0.588235318660736);
#316=CARTESIAN_POINT('',(-8.49999999999997,8.65644595693812E-015,1.74999999999997));
#317=VECTOR('',#413,1.0);
#318=DRAUGHTING_PRE_DEFINED_CURVE_FONT('continuous');
#319=COLOUR_RGB('',0.509803950786591,0.509803950786591,0.588235318660736);
#320=AXIS2_PLACEMENT_3D('',#414,#415,#416);
#321=PRE_DEFINED_MARKER('');
#322=COLOUR_RGB('',0.509803950786591,0.509803950786591,0.588235318660736);
#323=SURFACE_SIDE_STYLE('',(#417));
#324=EDGE_LOOP('',(#418,#419,#420,#421));
#325=AXIS2_PLACEMENT_3D('',#422,#423,#424);
#326=PRE_DEFINED_MARKER('');
#327=COLOUR_RGB('',0.509803950786591,0.509803950786591,0.588235318660736);
#328=SURFACE_SIDE_STYLE('',(#425));
#329=EDGE_LOOP('',(#426,#427,#428,#429));
#330=AXIS2_PLACEMENT_3D('',#430,#431,#432);
#332=CARTESIAN_POINT('',(2.8421709430404E-014,1.11174990285731E-014,-2.8421709430404E-014));
#333=DIRECTION('',(-0.0,0.0,-1.0));
#334=DIRECTION('',(-1.0,-1.67075020104228E-016,0.0));
#335=SURFACE_STYLE_FILL_AREA(#433);
#336=CARTESIAN_POINT('',(2.8421709430404E-014,1.11174990285731E-014,3.49999999999997));
#337=DIRECTION('',(-0.0,0.0,-1.0));
#338=DIRECTION('',(-1.0,-1.67075020104228E-016,0.0));
#339=CARTESIAN_POINT('',(2.8421709430404E-014,1.11174990285731E-014,-2.8421709430404E-014));
#340=DIRECTION('',(-0.0,0.0,-1.0));
#341=DIRECTION('',(-1.0,-1.67075020104228E-016,0.0));
#342=CARTESIAN_POINT('',(2.8421709430404E-014,1.11174990285731E-014,3.49999999999997));
#343=DIRECTION('',(-0.0,0.0,-1.0));
#344=DIRECTION('',(-1.0,-1.67075020104228E-016,0.0));
#345=CARTESIAN_POINT('',(2.8421709430404E-014,1.11174990285731E-014,3.49999999999997));
#346=DIRECTION('',(-0.0,0.0,-1.0));
#347=DIRECTION('',(-1.0,-1.67075020104228E-016,0.0));
#348=SURFACE_STYLE_FILL_AREA(#434);
#349=ORIENTED_EDGE('',*,*,#115,.F.);
#350=ORIENTED_EDGE('',*,*,#93,.F.);
#351=ORIENTED_EDGE('',*,*,#87,.F.);
#352=ORIENTED_EDGE('',*,*,#119,.T.);
#353=CARTESIAN_POINT('',(2.8421709430404E-014,1.11174990285731E-014,2.79274592024267));
#354=DIRECTION('',(0.0,-0.0,1.0));
#355=DIRECTION('',(-1.0,-1.67075020104228E-016,0.0));
#356=DIRECTION('',(0.0,0.0,1.0));
#357=SURFACE_STYLE_FILL_AREA(#435);
#358=ORIENTED_EDGE('',*,*,#61,.F.);
#359=ORIENTED_EDGE('',*,*,#113,.F.);
#360=ORIENTED_EDGE('',*,*,#91,.T.);
#361=ORIENTED_EDGE('',*,*,#71,.T.);
#362=CARTESIAN_POINT('',(-6.64999999999998,1.00888296913623E-014,-2.8421709430404E-014));
#363=DIRECTION('',(0.0,0.0,-1.0));
#364=DIRECTION('',(1.0,1.22460635382238E-016,0.0));
#365=CARTESIAN_POINT('',(2.8421709430404E-014,1.11174990285731E-014,2.08549184048536));
#366=DIRECTION('',(-0.0,0.0,-1.0));
#367=DIRECTION('',(-1.0,-1.67075020104228E-016,0.0));
#368=DIRECTION('',(0.866025403784433,2.50745232952657E-016,0.500000000000009));
#369=DIRECTION('',(-0.0,-0.0,1.0));
#370=CARTESIAN_POINT('',(2.8421709430404E-014,1.11174990285731E-014,-2.8421709430404E-014));
#371=DIRECTION('',(-0.0,0.0,-1.0));
#372=DIRECTION('',(-1.0,-1.67075020104228E-016,0.0));
#373=CARTESIAN_POINT('',(2.8421709430404E-014,1.11174990285731E-014,3.49999999999997));
#374=DIRECTION('',(-0.0,0.0,-1.0));
#375=DIRECTION('',(-1.0,-1.67075020104228E-016,0.0));
#376=DIRECTION('',(0.0,0.0,-1.0));
#377=SURFACE_STYLE_FILL_AREA(#436);
#378=ORIENTED_EDGE('',*,*,#117,.F.);
#379=ORIENTED_EDGE('',*,*,#65,.T.);
#380=ORIENTED_EDGE('',*,*,#89,.F.);
#381=ORIENTED_EDGE('',*,*,#91,.F.);
#382=CARTESIAN_POINT('',(2.8421709430404E-014,1.11174990285731E-014,1.74999999999997));
#383=DIRECTION('',(0.0,-0.0,1.0));
#384=DIRECTION('',(-1.0,-1.67075020104228E-016,0.0));
#385=SURFACE_STYLE_FILL_AREA(#437);
#386=ORIENTED_EDGE('',*,*,#65,.F.);
#387=ORIENTED_EDGE('',*,*,#73,.F.);
#388=ORIENTED_EDGE('',*,*,#75,.T.);
#389=ORIENTED_EDGE('',*,*,#93,.T.);
#390=CARTESIAN_POINT('',(-7.87499999999997,1.0153121524938E-014,3.49999999999997));
#391=DIRECTION('',(0.0,0.0,1.0));
#392=DIRECTION('',(-1.0,-1.22460635382238E-016,0.0));
#393=SURFACE_STYLE_FILL_AREA(#438);
#394=ORIENTED_EDGE('',*,*,#115,.T.);
#395=ORIENTED_EDGE('',*,*,#85,.T.);
#396=ORIENTED_EDGE('',*,*,#87,.T.);
#397=ORIENTED_EDGE('',*,*,#75,.F.);
#398=CARTESIAN_POINT('',(2.8421709430404E-014,1.11174990285731E-014,2.79274592024267));
#399=DIRECTION('',(0.0,-0.0,1.0));
#400=DIRECTION('',(-1.0,-1.67075020104228E-016,0.0));
#401=SURFACE_STYLE_FILL_AREA(#439);
#402=ORIENTED_EDGE('',*,*,#95,.F.);
#403=ORIENTED_EDGE('',*,*,#119,.F.);
#404=ORIENTED_EDGE('',*,*,#79,.F.);
#405=ORIENTED_EDGE('',*,*,#113,.T.);
#406=CARTESIAN_POINT('',(2.8421709430404E-014,1.11174990285731E-014,1.04274592024267));
#407=DIRECTION('',(0.0,-0.0,1.0));
#408=DIRECTION('',(-1.0,-1.67075020104228E-016,0.0));
#409=CARTESIAN_POINT('',(2.8421709430404E-014,1.11174990285731E-014,-2.8421709430404E-014));
#410=DIRECTION('',(-0.0,0.0,-1.0));
#411=DIRECTION('',(-1.0,-1.67075020104228E-016,0.0));
#412=DIRECTION('',(0.866025403784433,2.50745232952657E-016,-0.500000000000009));
#413=DIRECTION('',(0.0,0.0,-1.0));
#414=CARTESIAN_POINT('',(2.8421709430404E-014,1.11174990285731E-014,2.08549184048536));
#415=DIRECTION('',(-0.0,0.0,-1.0));
#416=DIRECTION('',(-1.0,-1.67075020104228E-016,0.0));
#417=SURFACE_STYLE_FILL_AREA(#440);
#418=ORIENTED_EDGE('',*,*,#95,.T.);
#419=ORIENTED_EDGE('',*,*,#61,.T.);
#420=ORIENTED_EDGE('',*,*,#79,.T.);
#421=ORIENTED_EDGE('',*,*,#85,.F.);
#422=CARTESIAN_POINT('',(2.8421709430404E-014,1.11174990285731E-014,1.04274592024267));
#423=DIRECTION('',(0.0,-0.0,1.0));
#424=DIRECTION('',(-1.0,-1.67075020104228E-016,0.0));
#425=SURFACE_STYLE_FILL_AREA(#441);
#426=ORIENTED_EDGE('',*,*,#117,.T.);
#427=ORIENTED_EDGE('',*,*,#71,.F.);
#428=ORIENTED_EDGE('',*,*,#89,.T.);
#429=ORIENTED_EDGE('',*,*,#73,.T.);
#430=CARTESIAN_POINT('',(2.8421709430404E-014,1.11174990285731E-014,1.74999999999997));
#431=DIRECTION('',(0.0,-0.0,1.0));
#432=DIRECTION('',(-1.0,-1.67075020104228E-016,0.0));
#433=FILL_AREA_STYLE('',(#442));
#434=FILL_AREA_STYLE('',(#443));
#435=FILL_AREA_STYLE('',(#444));
#436=FILL_AREA_STYLE('',(#445));
#437=FILL_AREA_STYLE('',(#446));
#438=FILL_AREA_STYLE('',(#447));
#439=FILL_AREA_STYLE('',(#448));
#440=FILL_AREA_STYLE('',(#449));
#441=FILL_AREA_STYLE('',(#450));
#442=FILL_AREA_STYLE_COLOUR('',#451);
#443=FILL_AREA_STYLE_COLOUR('',#452);
#444=FILL_AREA_STYLE_COLOUR('',#453);
#445=FILL_AREA_STYLE_COLOUR('',#454);
#446=FILL_AREA_STYLE_COLOUR('',#455);
#447=FILL_AREA_STYLE_COLOUR('',#456);
#448=FILL_AREA_STYLE_COLOUR('',#457);
#449=FILL_AREA_STYLE_COLOUR('',#458);
#450=FILL_AREA_STYLE_COLOUR('',#459);
#451=COLOUR_RGB('',0.509803950786591,0.509803950786591,0.588235318660736);
#452=COLOUR_RGB('',0.509803950786591,0.509803950786591,0.588235318660736);
#453=COLOUR_RGB('',0.509803950786591,0.509803950786591,0.588235318660736);
#454=COLOUR_RGB('',0.509803950786591,0.509803950786591,0.588235318660736);
#455=COLOUR_RGB('',0.509803950786591,0.509803950786591,0.588235318660736);
#456=COLOUR_RGB('',0.509803950786591,0.509803950786591,0.588235318660736);
#457=COLOUR_RGB('',0.509803950786591,0.509803950786591,0.588235318660736);
#458=COLOUR_RGB('',0.509803950786591,0.509803950786591,0.588235318660736);
#459=COLOUR_RGB('',0.509803950786591,0.509803950786591,0.588235318660736);
ENDSEC;
END-ISO-10303-21;
