ISO-10303-21;
HEADER;
FILE_DESCRIPTION(('STEP AP214'),'1');
FILE_NAME(' ','  ',('TraceParts'),('TraceParts S.A.'),'XStep 1.0',' ',' ');
FILE_SCHEMA(('automotive_design'));
ENDSEC;
DATA;
#1=MECHANICAL_DESIGN_GEOMETRIC_PRESENTATION_REPRESENTATION(' ',(#10,#11,#12,#13,#14,#15,#16,#17,#18,#19,#20,#21,#22,#23,#24,#25,#26,#27,#28,#29,#30,#31,#32,#33,#34,#35,#36,#37,#38,#39,#40,#41,#42,#43,#44),#6);
#2=PRODUCT_DEFINITION_CONTEXT('',#45,'design');
#3=APPLICATION_PROTOCOL_DEFINITION('INTERNATIONAL STANDARD','automotive_design',1994,#45);
#4=PRODUCT_CATEGORY_RELATIONSHIP('NONE','NONE',#46,#47);
#5=SHAPE_DEFINITION_REPRESENTATION(#48,#49);
#6= (GEOMETRIC_REPRESENTATION_CONTEXT(3)GLOBAL_UNCERTAINTY_ASSIGNED_CONTEXT((#52))GLOBAL_UNIT_ASSIGNED_CONTEXT((#54,#55,#56))REPRESENTATION_CONTEXT('NONE','WORKSPACE'));
#10=STYLED_ITEM('',(#58),#59);
#11=STYLED_ITEM('',(#60),#61);
#12=STYLED_ITEM('',(#62),#63);
#13=STYLED_ITEM('',(#64),#65);
#14=STYLED_ITEM('',(#66),#67);
#15=STYLED_ITEM('',(#68),#69);
#16=STYLED_ITEM('',(#70),#71);
#17=STYLED_ITEM('',(#72),#73);
#18=STYLED_ITEM('',(#74),#75);
#19=STYLED_ITEM('',(#76),#77);
#20=STYLED_ITEM('',(#78),#79);
#21=STYLED_ITEM('',(#80),#81);
#22=STYLED_ITEM('',(#82),#83);
#23=STYLED_ITEM('',(#84),#85);
#24=STYLED_ITEM('',(#86),#87);
#25=STYLED_ITEM('',(#88),#89);
#26=STYLED_ITEM('',(#90),#91);
#27=STYLED_ITEM('',(#92),#93);
#28=STYLED_ITEM('',(#94),#95);
#29=STYLED_ITEM('',(#96),#97);
#30=STYLED_ITEM('',(#98),#99);
#31=STYLED_ITEM('',(#100),#101);
#32=STYLED_ITEM('',(#102),#103);
#33=STYLED_ITEM('',(#104),#105);
#34=STYLED_ITEM('',(#106),#107);
#35=STYLED_ITEM('',(#108),#109);
#36=STYLED_ITEM('',(#110),#111);
#37=STYLED_ITEM('',(#112),#113);
#38=STYLED_ITEM('',(#114),#115);
#39=STYLED_ITEM('',(#116),#117);
#40=STYLED_ITEM('',(#118),#119);
#41=STYLED_ITEM('',(#120),#121);
#42=STYLED_ITEM('',(#122),#123);
#43=STYLED_ITEM('',(#124),#125);
#44=STYLED_ITEM('',(#126),#127);
#45=APPLICATION_CONTEXT(' ');
#46=PRODUCT_CATEGORY('part','NONE');
#47=PRODUCT_RELATED_PRODUCT_CATEGORY('detail',' ',(#128));
#48=PRODUCT_DEFINITION_SHAPE('NONE','NONE',#129);
#49=ADVANCED_BREP_SHAPE_REPRESENTATION('1',(#63,#130),#6);
#52=UNCERTAINTY_MEASURE_WITH_UNIT(LENGTH_MEASURE(1.0E-006),#54,'','');
#54= (CONVERSION_BASED_UNIT('MILLIMETRE',#133)LENGTH_UNIT()NAMED_UNIT(#136));
#55= (NAMED_UNIT(#138)PLANE_ANGLE_UNIT()SI_UNIT($,.RADIAN.));
#56= (NAMED_UNIT(#138)SOLID_ANGLE_UNIT()SI_UNIT($,.STERADIAN.));
#58=PRESENTATION_STYLE_ASSIGNMENT((#144));
#59=EDGE_CURVE('',#67,#81,#145,.T.);
#60=PRESENTATION_STYLE_ASSIGNMENT((#146));
#61=EDGE_CURVE('',#119,#117,#147,.T.);
#62=PRESENTATION_STYLE_ASSIGNMENT((#148));
#63=MANIFOLD_SOLID_BREP('1',#149);
#64=PRESENTATION_STYLE_ASSIGNMENT((#150));
#65=ADVANCED_FACE('',(#151),#152,.F.);
#66=PRESENTATION_STYLE_ASSIGNMENT((#153));
#67=VERTEX_POINT('',#154);
#68=PRESENTATION_STYLE_ASSIGNMENT((#155));
#69=EDGE_CURVE('',#71,#127,#156,.T.);
#70=PRESENTATION_STYLE_ASSIGNMENT((#157));
#71=VERTEX_POINT('',#158);
#72=PRESENTATION_STYLE_ASSIGNMENT((#159));
#73=EDGE_CURVE('',#127,#71,#160,.T.);
#74=PRESENTATION_STYLE_ASSIGNMENT((#161));
#75=EDGE_CURVE('',#85,#97,#162,.T.);
#76=PRESENTATION_STYLE_ASSIGNMENT((#163));
#77=EDGE_CURVE('',#67,#121,#164,.T.);
#78=PRESENTATION_STYLE_ASSIGNMENT((#165));
#79=ADVANCED_FACE('',(#166,#167),#168,.T.);
#80=PRESENTATION_STYLE_ASSIGNMENT((#169));
#81=VERTEX_POINT('',#170);
#82=PRESENTATION_STYLE_ASSIGNMENT((#171));
#83=EDGE_CURVE('',#81,#105,#172,.T.);
#84=PRESENTATION_STYLE_ASSIGNMENT((#173));
#85=VERTEX_POINT('',#174);
#86=PRESENTATION_STYLE_ASSIGNMENT((#175));
#87=EDGE_CURVE('',#117,#105,#176,.T.);
#88=PRESENTATION_STYLE_ASSIGNMENT((#177));
#89=EDGE_CURVE('',#105,#81,#178,.T.);
#90=PRESENTATION_STYLE_ASSIGNMENT((#179));
#91=ADVANCED_FACE('',(#180),#181,.T.);
#92=PRESENTATION_STYLE_ASSIGNMENT((#182));
#93=EDGE_CURVE('',#117,#119,#183,.T.);
#94=PRESENTATION_STYLE_ASSIGNMENT((#184));
#95=EDGE_CURVE('',#71,#85,#185,.T.);
#96=PRESENTATION_STYLE_ASSIGNMENT((#186));
#97=VERTEX_POINT('',#187);
#98=PRESENTATION_STYLE_ASSIGNMENT((#188));
#99=EDGE_CURVE('',#97,#85,#189,.T.);
#100=PRESENTATION_STYLE_ASSIGNMENT((#190));
#101=ADVANCED_FACE('',(#191),#192,.T.);
#102=PRESENTATION_STYLE_ASSIGNMENT((#193));
#103=EDGE_CURVE('',#105,#121,#194,.T.);
#104=PRESENTATION_STYLE_ASSIGNMENT((#195));
#105=VERTEX_POINT('',#196);
#106=PRESENTATION_STYLE_ASSIGNMENT((#197));
#107=EDGE_CURVE('',#121,#67,#198,.T.);
#108=PRESENTATION_STYLE_ASSIGNMENT((#199));
#109=ADVANCED_FACE('',(#200),#201,.F.);
#110=PRESENTATION_STYLE_ASSIGNMENT((#202));
#111=ADVANCED_FACE('',(#203),#204,.F.);
#112=PRESENTATION_STYLE_ASSIGNMENT((#205));
#113=EDGE_CURVE('',#81,#119,#206,.T.);
#114=PRESENTATION_STYLE_ASSIGNMENT((#207));
#115=EDGE_CURVE('',#97,#127,#208,.T.);
#116=PRESENTATION_STYLE_ASSIGNMENT((#209));
#117=VERTEX_POINT('',#210);
#118=PRESENTATION_STYLE_ASSIGNMENT((#211));
#119=VERTEX_POINT('',#212);
#120=PRESENTATION_STYLE_ASSIGNMENT((#213));
#121=VERTEX_POINT('',#214);
#122=PRESENTATION_STYLE_ASSIGNMENT((#215));
#123=ADVANCED_FACE('',(#216,#217),#218,.T.);
#124=PRESENTATION_STYLE_ASSIGNMENT((#219));
#125=ADVANCED_FACE('',(#220),#221,.F.);
#126=PRESENTATION_STYLE_ASSIGNMENT((#222));
#127=VERTEX_POINT('',#223);
#128=PRODUCT('1','1','PART-1-DESC',(#224));
#129=PRODUCT_DEFINITION('NONE','NONE',#225,#2);
#130=AXIS2_PLACEMENT_3D('',#226,#227,#228);
#133=LENGTH_MEASURE_WITH_UNIT(LENGTH_MEASURE(1.0),#229);
#136=DIMENSIONAL_EXPONENTS(1.0,0.0,0.0,0.0,0.0,0.0,0.0);
#138=DIMENSIONAL_EXPONENTS(0.0,0.0,0.0,0.0,0.0,0.0,0.0);
#144=CURVE_STYLE('',#230,POSITIVE_LENGTH_MEASURE(1.0E-006),#231);
#145=LINE('',#232,#233);
#146=CURVE_STYLE('',#234,POSITIVE_LENGTH_MEASURE(1.0E-006),#235);
#147=CIRCLE('',#236,11.6000000000001);
#148=SURFACE_STYLE_USAGE(.BOTH.,#237);
#149=CLOSED_SHELL('',(#65,#91,#111,#125,#123,#101,#79,#109));
#150=SURFACE_STYLE_USAGE(.BOTH.,#238);
#151=FACE_OUTER_BOUND('',#239,.T.);
#152=CYLINDRICAL_SURFACE('',#240,11.6000000000001);
#153=POINT_STYLE(' ',#241,POSITIVE_LENGTH_MEASURE(1.0E-006),#242);
#154=CARTESIAN_POINT('',(-15.4999999999999,1.05462356021935E-014,7.99999999999997));
#155=CURVE_STYLE('',#243,POSITIVE_LENGTH_MEASURE(1.0E-006),#244);
#156=CIRCLE('',#245,25.0);
#157=POINT_STYLE(' ',#246,POSITIVE_LENGTH_MEASURE(1.0E-006),#247);
#158=CARTESIAN_POINT('',(25.0000000000001,1.96221693222791E-014,-2.8421709430404E-014));
#159=CURVE_STYLE('',#248,POSITIVE_LENGTH_MEASURE(1.0E-006),#249);
#160=CIRCLE('',#250,25.0);
#161=CURVE_STYLE('',#251,POSITIVE_LENGTH_MEASURE(1.0E-006),#252);
#162=CIRCLE('',#253,25.0);
#163=CURVE_STYLE('',#254,POSITIVE_LENGTH_MEASURE(1.0E-006),#255);
#164=CIRCLE('',#256,15.5);
#165=SURFACE_STYLE_USAGE(.BOTH.,#257);
#166=FACE_BOUND('',#258,.T.);
#167=FACE_OUTER_BOUND('',#259,.T.);
#168=PLANE('',#260);
#169=POINT_STYLE(' ',#261,POSITIVE_LENGTH_MEASURE(1.0E-006),#262);
#170=CARTESIAN_POINT('',(-11.6,1.08859618526182E-014,5.74833395016046));
#171=CURVE_STYLE('',#263,POSITIVE_LENGTH_MEASURE(1.0E-006),#264);
#172=CIRCLE('',#265,11.6000000000001);
#173=POINT_STYLE(' ',#266,POSITIVE_LENGTH_MEASURE(1.0E-006),#267);
#174=CARTESIAN_POINT('',(25.0000000000001,1.96221693222791E-014,7.99999999999997));
#175=CURVE_STYLE('',#268,POSITIVE_LENGTH_MEASURE(1.0E-006),#269);
#176=LINE('',#270,#271);
#177=CURVE_STYLE('',#272,POSITIVE_LENGTH_MEASURE(1.0E-006),#273);
#178=CIRCLE('',#274,11.6000000000001);
#179=SURFACE_STYLE_USAGE(.BOTH.,#275);
#180=FACE_OUTER_BOUND('',#276,.T.);
#181=CYLINDRICAL_SURFACE('',#277,25.0);
#182=CURVE_STYLE('',#278,POSITIVE_LENGTH_MEASURE(1.0E-006),#279);
#183=CIRCLE('',#280,11.6000000000001);
#184=CURVE_STYLE('',#281,POSITIVE_LENGTH_MEASURE(1.0E-006),#282);
#185=LINE('',#283,#284);
#186=POINT_STYLE(' ',#285,POSITIVE_LENGTH_MEASURE(1.0E-006),#286);
#187=CARTESIAN_POINT('',(-24.9999999999999,9.38285956606219E-015,7.99999999999997));
#188=CURVE_STYLE('',#287,POSITIVE_LENGTH_MEASURE(1.0E-006),#288);
#189=CIRCLE('',#289,25.0);
#190=SURFACE_STYLE_USAGE(.BOTH.,#290);
#191=FACE_OUTER_BOUND('',#291,.T.);
#192=CYLINDRICAL_SURFACE('',#292,25.0);
#193=CURVE_STYLE('',#293,POSITIVE_LENGTH_MEASURE(1.0E-006),#294);
#194=LINE('',#295,#296);
#195=POINT_STYLE(' ',#297,POSITIVE_LENGTH_MEASURE(1.0E-006),#298);
#196=CARTESIAN_POINT('',(11.6000000000001,1.57748718070688E-014,5.74833395016046));
#197=CURVE_STYLE('',#299,POSITIVE_LENGTH_MEASURE(1.0E-006),#300);
#198=CIRCLE('',#301,15.5);
#199=SURFACE_STYLE_USAGE(.BOTH.,#302);
#200=FACE_OUTER_BOUND('',#303,.T.);
#201=CYLINDRICAL_SURFACE('',#304,11.6000000000001);
#202=SURFACE_STYLE_USAGE(.BOTH.,#305);
#203=FACE_OUTER_BOUND('',#306,.T.);
#204=CONICAL_SURFACE('',#307,13.55,1.04719755119659);
#205=CURVE_STYLE('',#308,POSITIVE_LENGTH_MEASURE(1.0E-006),#309);
#206=LINE('',#310,#311);
#207=CURVE_STYLE('',#312,POSITIVE_LENGTH_MEASURE(1.0E-006),#313);
#208=LINE('',#314,#315);
#209=POINT_STYLE(' ',#316,POSITIVE_LENGTH_MEASURE(1.0E-006),#317);
#210=CARTESIAN_POINT('',(11.6000000000001,1.57748718070688E-014,-2.8421709430404E-014));
#211=POINT_STYLE(' ',#318,POSITIVE_LENGTH_MEASURE(1.0E-006),#319);
#212=CARTESIAN_POINT('',(-11.6,1.05339895386552E-014,-2.8421709430404E-014));
#213=POINT_STYLE(' ',#320,POSITIVE_LENGTH_MEASURE(1.0E-006),#321);
#214=CARTESIAN_POINT('',(15.5000000000001,1.68946076510479E-014,7.99999999999997));
#215=SURFACE_STYLE_USAGE(.BOTH.,#322);
#216=FACE_OUTER_BOUND('',#323,.T.);
#217=FACE_BOUND('',#324,.T.);
#218=PLANE('',#325);
#219=SURFACE_STYLE_USAGE(.BOTH.,#326);
#220=FACE_OUTER_BOUND('',#327,.T.);
#221=CONICAL_SURFACE('',#328,13.55,1.04719755119659);
#222=POINT_STYLE(' ',#329,POSITIVE_LENGTH_MEASURE(1.0E-006),#330);
#223=CARTESIAN_POINT('',(-24.9999999999999,8.89301702453324E-015,-2.8421709430404E-014));
#224=PRODUCT_CONTEXT('',#45,'mechanical');
#225=PRODUCT_DEFINITION_FORMATION_WITH_SPECIFIED_SOURCE(' ','NONE',#128,.NOT_KNOWN.);
#226=CARTESIAN_POINT('',(0.0,0.0,0.0));
#227=DIRECTION('',(0.0,0.0,1.0));
#228=DIRECTION('',(1.0,0.0,0.0));
#229= (NAMED_UNIT(#136)LENGTH_UNIT()SI_UNIT(.MILLI.,.METRE.));
#230=DRAUGHTING_PRE_DEFINED_CURVE_FONT('continuous');
#231=COLOUR_RGB('',0.509803950786591,0.509803950786591,0.588235318660736);
#232=CARTESIAN_POINT('',(-13.55,8.55401117217788E-015,6.87416697508021));
#233=VECTOR('',#332,1.0);
#234=DRAUGHTING_PRE_DEFINED_CURVE_FONT('continuous');
#235=COLOUR_RGB('',0.509803950786591,0.509803950786591,0.588235318660736);
#236=AXIS2_PLACEMENT_3D('',#333,#334,#335);
#237=SURFACE_SIDE_STYLE('',(#336));
#238=SURFACE_SIDE_STYLE('',(#337));
#239=EDGE_LOOP('',(#338,#339,#340,#341));
#240=AXIS2_PLACEMENT_3D('',#342,#343,#344);
#241=PRE_DEFINED_MARKER('');
#242=COLOUR_RGB('',0.509803950786591,0.509803950786591,0.588235318660736);
#243=DRAUGHTING_PRE_DEFINED_CURVE_FONT('continuous');
#244=COLOUR_RGB('',0.509803950786591,0.509803950786591,0.588235318660736);
#245=AXIS2_PLACEMENT_3D('',#345,#346,#347);
#246=PRE_DEFINED_MARKER('');
#247=COLOUR_RGB('',0.509803950786591,0.509803950786591,0.588235318660736);
#248=DRAUGHTING_PRE_DEFINED_CURVE_FONT('continuous');
#249=COLOUR_RGB('',0.509803950786591,0.509803950786591,0.588235318660736);
#250=AXIS2_PLACEMENT_3D('',#348,#349,#350);
#251=DRAUGHTING_PRE_DEFINED_CURVE_FONT('continuous');
#252=COLOUR_RGB('',0.509803950786591,0.509803950786591,0.588235318660736);
#253=AXIS2_PLACEMENT_3D('',#351,#352,#353);
#254=DRAUGHTING_PRE_DEFINED_CURVE_FONT('continuous');
#255=COLOUR_RGB('',0.509803950786591,0.509803950786591,0.588235318660736);
#256=AXIS2_PLACEMENT_3D('',#354,#355,#356);
#257=SURFACE_SIDE_STYLE('',(#357));
#258=EDGE_LOOP('',(#358,#359));
#259=EDGE_LOOP('',(#360,#361));
#260=AXIS2_PLACEMENT_3D('',#362,#363,#364);
#261=PRE_DEFINED_MARKER('');
#262=COLOUR_RGB('',0.509803950786591,0.509803950786591,0.588235318660736);
#263=DRAUGHTING_PRE_DEFINED_CURVE_FONT('continuous');
#264=COLOUR_RGB('',0.509803950786591,0.509803950786591,0.588235318660736);
#265=AXIS2_PLACEMENT_3D('',#365,#366,#367);
#266=PRE_DEFINED_MARKER('');
#267=COLOUR_RGB('',0.509803950786591,0.509803950786591,0.588235318660736);
#268=DRAUGHTING_PRE_DEFINED_CURVE_FONT('continuous');
#269=COLOUR_RGB('',0.509803950786591,0.509803950786591,0.588235318660736);
#270=CARTESIAN_POINT('',(11.6000000000001,1.57748718070688E-014,2.87416697508021));
#271=VECTOR('',#368,1.0);
#272=DRAUGHTING_PRE_DEFINED_CURVE_FONT('continuous');
#273=COLOUR_RGB('',0.509803950786591,0.509803950786591,0.588235318660736);
#274=AXIS2_PLACEMENT_3D('',#369,#370,#371);
#275=SURFACE_SIDE_STYLE('',(#372));
#276=EDGE_LOOP('',(#373,#374,#375,#376));
#277=AXIS2_PLACEMENT_3D('',#377,#378,#379);
#278=DRAUGHTING_PRE_DEFINED_CURVE_FONT('continuous');
#279=COLOUR_RGB('',0.509803950786591,0.509803950786591,0.588235318660736);
#280=AXIS2_PLACEMENT_3D('',#380,#381,#382);
#281=DRAUGHTING_PRE_DEFINED_CURVE_FONT('continuous');
#282=COLOUR_RGB('',0.509803950786591,0.509803950786591,0.588235318660736);
#283=CARTESIAN_POINT('',(25.0000000000001,1.96221693222791E-014,3.99999999999997));
#284=VECTOR('',#383,1.0);
#285=PRE_DEFINED_MARKER('');
#286=COLOUR_RGB('',0.509803950786591,0.509803950786591,0.588235318660736);
#287=DRAUGHTING_PRE_DEFINED_CURVE_FONT('continuous');
#288=COLOUR_RGB('',0.509803950786591,0.509803950786591,0.588235318660736);
#289=AXIS2_PLACEMENT_3D('',#384,#385,#386);
#290=SURFACE_SIDE_STYLE('',(#387));
#291=EDGE_LOOP('',(#388,#389,#390,#391));
#292=AXIS2_PLACEMENT_3D('',#392,#393,#394);
#293=DRAUGHTING_PRE_DEFINED_CURVE_FONT('continuous');
#294=COLOUR_RGB('',0.509803950786591,0.509803950786591,0.588235318660736);
#295=CARTESIAN_POINT('',(13.5500000000001,1.63347397290584E-014,6.87416697508021));
#296=VECTOR('',#395,1.0);
#297=PRE_DEFINED_MARKER('');
#298=COLOUR_RGB('',0.509803950786591,0.509803950786591,0.588235318660736);
#299=DRAUGHTING_PRE_DEFINED_CURVE_FONT('continuous');
#300=COLOUR_RGB('',0.509803950786591,0.509803950786591,0.588235318660736);
#301=AXIS2_PLACEMENT_3D('',#396,#397,#398);
#302=SURFACE_SIDE_STYLE('',(#399));
#303=EDGE_LOOP('',(#400,#401,#402,#403));
#304=AXIS2_PLACEMENT_3D('',#404,#405,#406);
#305=SURFACE_SIDE_STYLE('',(#407));
#306=EDGE_LOOP('',(#408,#409,#410,#411));
#307=AXIS2_PLACEMENT_3D('',#412,#413,#414);
#308=DRAUGHTING_PRE_DEFINED_CURVE_FONT('continuous');
#309=COLOUR_RGB('',0.509803950786591,0.509803950786591,0.588235318660736);
#310=CARTESIAN_POINT('',(-11.6,9.11387909416743E-015,2.87416697508021));
#311=VECTOR('',#415,1.0);
#312=DRAUGHTING_PRE_DEFINED_CURVE_FONT('continuous');
#313=COLOUR_RGB('',0.509803950786591,0.509803950786591,0.588235318660736);
#314=CARTESIAN_POINT('',(-24.9999999999999,5.26658157895717E-015,3.99999999999997));
#315=VECTOR('',#416,1.0);
#316=PRE_DEFINED_MARKER('');
#317=COLOUR_RGB('',0.509803950786591,0.509803950786591,0.588235318660736);
#318=PRE_DEFINED_MARKER('');
#319=COLOUR_RGB('',0.509803950786591,0.509803950786591,0.588235318660736);
#320=PRE_DEFINED_MARKER('');
#321=COLOUR_RGB('',0.509803950786591,0.509803950786591,0.588235318660736);
#322=SURFACE_SIDE_STYLE('',(#417));
#323=EDGE_LOOP('',(#418,#419));
#324=EDGE_LOOP('',(#420,#421));
#325=AXIS2_PLACEMENT_3D('',#422,#423,#424);
#326=SURFACE_SIDE_STYLE('',(#425));
#327=EDGE_LOOP('',(#426,#427,#428,#429));
#328=AXIS2_PLACEMENT_3D('',#430,#431,#432);
#329=PRE_DEFINED_MARKER('');
#330=COLOUR_RGB('',0.509803950786591,0.509803950786591,0.588235318660736);
#332=DIRECTION('',(0.866025403784437,2.48646073439466E-016,-0.500000000000003));
#333=CARTESIAN_POINT('',(5.6843418860808E-014,1.24443754506181E-014,-2.8421709430404E-014));
#334=DIRECTION('',(-0.0,0.0,-1.0));
#335=DIRECTION('',(-1.0,-1.64651119484201E-016,0.0));
#336=SURFACE_STYLE_FILL_AREA(#433);
#337=SURFACE_STYLE_FILL_AREA(#434);
#338=ORIENTED_EDGE('',*,*,#113,.F.);
#339=ORIENTED_EDGE('',*,*,#89,.F.);
#340=ORIENTED_EDGE('',*,*,#87,.F.);
#341=ORIENTED_EDGE('',*,*,#93,.T.);
#342=CARTESIAN_POINT('',(5.6843418860808E-014,1.24443754506181E-014,2.87416697508021));
#343=DIRECTION('',(0.0,-0.0,1.0));
#344=DIRECTION('',(-1.0,-1.64651119484201E-016,0.0));
#345=CARTESIAN_POINT('',(5.6843418860808E-014,1.24443754506181E-014,-2.8421709430404E-014));
#346=DIRECTION('',(-0.0,0.0,-1.0));
#347=DIRECTION('',(-1.0,-1.64651119484201E-016,0.0));
#348=CARTESIAN_POINT('',(5.6843418860808E-014,1.24443754506181E-014,-2.8421709430404E-014));
#349=DIRECTION('',(-0.0,0.0,-1.0));
#350=DIRECTION('',(-1.0,-1.64651119484201E-016,0.0));
#351=CARTESIAN_POINT('',(5.6843418860808E-014,1.24443754506181E-014,7.99999999999997));
#352=DIRECTION('',(-0.0,0.0,-1.0));
#353=DIRECTION('',(-1.0,-1.64651119484201E-016,0.0));
#354=CARTESIAN_POINT('',(5.6843418860808E-014,1.24443754506181E-014,7.99999999999997));
#355=DIRECTION('',(-0.0,0.0,-1.0));
#356=DIRECTION('',(-1.0,-1.64651119484201E-016,0.0));
#357=SURFACE_STYLE_FILL_AREA(#435);
#358=ORIENTED_EDGE('',*,*,#61,.F.);
#359=ORIENTED_EDGE('',*,*,#93,.F.);
#360=ORIENTED_EDGE('',*,*,#73,.T.);
#361=ORIENTED_EDGE('',*,*,#69,.T.);
#362=CARTESIAN_POINT('',(-18.3,9.71350328159423E-015,-2.8421709430404E-014));
#363=DIRECTION('',(0.0,0.0,-1.0));
#364=DIRECTION('',(1.0,1.22460635382238E-016,0.0));
#365=CARTESIAN_POINT('',(5.6843418860808E-014,1.24443754506181E-014,5.74833395016046));
#366=DIRECTION('',(-0.0,0.0,-1.0));
#367=DIRECTION('',(-1.0,-1.64651119484201E-016,0.0));
#368=DIRECTION('',(0.0,0.0,1.0));
#369=CARTESIAN_POINT('',(5.6843418860808E-014,1.24443754506181E-014,5.74833395016046));
#370=DIRECTION('',(-0.0,0.0,-1.0));
#371=DIRECTION('',(-1.0,-1.64651119484201E-016,0.0));
#372=SURFACE_STYLE_FILL_AREA(#436);
#373=ORIENTED_EDGE('',*,*,#115,.F.);
#374=ORIENTED_EDGE('',*,*,#99,.T.);
#375=ORIENTED_EDGE('',*,*,#95,.F.);
#376=ORIENTED_EDGE('',*,*,#73,.F.);
#377=CARTESIAN_POINT('',(5.6843418860808E-014,1.24443754506181E-014,3.99999999999997));
#378=DIRECTION('',(0.0,-0.0,1.0));
#379=DIRECTION('',(-1.0,-1.64651119484201E-016,0.0));
#380=CARTESIAN_POINT('',(5.6843418860808E-014,1.24443754506181E-014,-2.8421709430404E-014));
#381=DIRECTION('',(-0.0,0.0,-1.0));
#382=DIRECTION('',(-1.0,-1.64651119484201E-016,0.0));
#383=DIRECTION('',(-0.0,-0.0,1.0));
#384=CARTESIAN_POINT('',(5.6843418860808E-014,1.24443754506181E-014,7.99999999999997));
#385=DIRECTION('',(-0.0,0.0,-1.0));
#386=DIRECTION('',(-1.0,-1.64651119484201E-016,0.0));
#387=SURFACE_STYLE_FILL_AREA(#437);
#388=ORIENTED_EDGE('',*,*,#115,.T.);
#389=ORIENTED_EDGE('',*,*,#69,.F.);
#390=ORIENTED_EDGE('',*,*,#95,.T.);
#391=ORIENTED_EDGE('',*,*,#75,.T.);
#392=CARTESIAN_POINT('',(5.6843418860808E-014,1.24443754506181E-014,3.99999999999997));
#393=DIRECTION('',(0.0,-0.0,1.0));
#394=DIRECTION('',(-1.0,-1.64651119484201E-016,0.0));
#395=DIRECTION('',(0.866025403784437,2.48646073439466E-016,0.500000000000003));
#396=CARTESIAN_POINT('',(5.6843418860808E-014,1.24443754506181E-014,7.99999999999997));
#397=DIRECTION('',(-0.0,0.0,-1.0));
#398=DIRECTION('',(-1.0,-1.64651119484201E-016,0.0));
#399=SURFACE_STYLE_FILL_AREA(#438);
#400=ORIENTED_EDGE('',*,*,#113,.T.);
#401=ORIENTED_EDGE('',*,*,#61,.T.);
#402=ORIENTED_EDGE('',*,*,#87,.T.);
#403=ORIENTED_EDGE('',*,*,#83,.F.);
#404=CARTESIAN_POINT('',(5.6843418860808E-014,1.24443754506181E-014,2.87416697508021));
#405=DIRECTION('',(0.0,-0.0,1.0));
#406=DIRECTION('',(-1.0,-1.64651119484201E-016,0.0));
#407=SURFACE_STYLE_FILL_AREA(#439);
#408=ORIENTED_EDGE('',*,*,#59,.F.);
#409=ORIENTED_EDGE('',*,*,#107,.F.);
#410=ORIENTED_EDGE('',*,*,#103,.F.);
#411=ORIENTED_EDGE('',*,*,#89,.T.);
#412=CARTESIAN_POINT('',(5.6843418860808E-014,1.24443754506181E-014,6.87416697508021));
#413=DIRECTION('',(0.0,-0.0,1.0));
#414=DIRECTION('',(-1.0,-1.64651119484201E-016,0.0));
#415=DIRECTION('',(0.0,0.0,-1.0));
#416=DIRECTION('',(0.0,0.0,-1.0));
#417=SURFACE_STYLE_FILL_AREA(#440);
#418=ORIENTED_EDGE('',*,*,#99,.F.);
#419=ORIENTED_EDGE('',*,*,#75,.F.);
#420=ORIENTED_EDGE('',*,*,#77,.T.);
#421=ORIENTED_EDGE('',*,*,#107,.T.);
#422=CARTESIAN_POINT('',(-20.2499999999999,9.96454758412782E-015,7.99999999999997));
#423=DIRECTION('',(0.0,0.0,1.0));
#424=DIRECTION('',(-1.0,-1.22460635382238E-016,0.0));
#425=SURFACE_STYLE_FILL_AREA(#441);
#426=ORIENTED_EDGE('',*,*,#59,.T.);
#427=ORIENTED_EDGE('',*,*,#83,.T.);
#428=ORIENTED_EDGE('',*,*,#103,.T.);
#429=ORIENTED_EDGE('',*,*,#77,.F.);
#430=CARTESIAN_POINT('',(5.6843418860808E-014,1.24443754506181E-014,6.87416697508021));
#431=DIRECTION('',(0.0,-0.0,1.0));
#432=DIRECTION('',(-1.0,-1.64651119484201E-016,0.0));
#433=FILL_AREA_STYLE('',(#442));
#434=FILL_AREA_STYLE('',(#443));
#435=FILL_AREA_STYLE('',(#444));
#436=FILL_AREA_STYLE('',(#445));
#437=FILL_AREA_STYLE('',(#446));
#438=FILL_AREA_STYLE('',(#447));
#439=FILL_AREA_STYLE('',(#448));
#440=FILL_AREA_STYLE('',(#449));
#441=FILL_AREA_STYLE('',(#450));
#442=FILL_AREA_STYLE_COLOUR('',#451);
#443=FILL_AREA_STYLE_COLOUR('',#452);
#444=FILL_AREA_STYLE_COLOUR('',#453);
#445=FILL_AREA_STYLE_COLOUR('',#454);
#446=FILL_AREA_STYLE_COLOUR('',#455);
#447=FILL_AREA_STYLE_COLOUR('',#456);
#448=FILL_AREA_STYLE_COLOUR('',#457);
#449=FILL_AREA_STYLE_COLOUR('',#458);
#450=FILL_AREA_STYLE_COLOUR('',#459);
#451=COLOUR_RGB('',0.509803950786591,0.509803950786591,0.588235318660736);
#452=COLOUR_RGB('',0.509803950786591,0.509803950786591,0.588235318660736);
#453=COLOUR_RGB('',0.509803950786591,0.509803950786591,0.588235318660736);
#454=COLOUR_RGB('',0.509803950786591,0.509803950786591,0.588235318660736);
#455=COLOUR_RGB('',0.509803950786591,0.509803950786591,0.588235318660736);
#456=COLOUR_RGB('',0.509803950786591,0.509803950786591,0.588235318660736);
#457=COLOUR_RGB('',0.509803950786591,0.509803950786591,0.588235318660736);
#458=COLOUR_RGB('',0.509803950786591,0.509803950786591,0.588235318660736);
#459=COLOUR_RGB('',0.509803950786591,0.509803950786591,0.588235318660736);
ENDSEC;
END-ISO-10303-21;
